» » »

Papa Roach, Blood Bass tabs (ver.1)

Artists:  A B C D E F G H I J K L M N O P Q R S T U V W X Y Z # 

Blood Bass tabs (ver.1)

Papa Roach Tabs
Rating:
0/5 (0 votes)
Blood lessons Tabs too difficult? Try these video lessons and learn fast
                Band- Papa Roach
Album- Getting Away With Murder
Song- Blood
Tuning- B,E,A,D,G

Intro:
G---------------|
D---------------|
A---------------|
E---------------|
B--4/11-11-11/4-|

Verse I:
G-----------------------------------------------------------------------------------|
D-----------------------------------------------------------------------------------|
A-----------------------------------------------------------------------------------|
E--6-6-6-6-6-6-6-6-4-4-4-4-4-4-4-4-2-2-2-2-2-2-2-2-1-1-1-1-1-1-1-1-0-0-0-0-0-0-0-0--|
B-----------------------------------------------------------------------------------|

Verse II:
G-----------------------------------------------------------------------------------|
D-----------------------------------------------------------------------------------|
A-----------------------------------------------------------------------------------|
E-----------------------------------------------------------------------------------|
B-4-4-4-4-4-4-4-4-2-2-2-2-2-2-2-2-0-0-0-0-0-0-0-0---0-0-0-0-0-0-0-0-2-2-2-2-2-2-2-2-|

G-----------------------------------------------------------------------------------|
D-----------------------------------------------------------------------------------|
A-----------------------------------------------------------------------------------|
E------------------0-0-0-0-0-0-0-0-1-1-1-1-1-1-1-1-0-0-0-0-0-0-0-0------------------|
B--4-4-4-4-4-4-4-4-------------------------------------------------4-4-4-4-4-4-4-4--|

G-----------------|
D-----------------|
A-----------------|
E-----------------|
B-2-2-2-2-2-2-2-2-|

Chorus:
G------------------------------------------------------------------|
D------------------------------------------------------------------|
A------------------------------------------------------------------|
E--6-6-6-6-6-6-6-6-4-4-4-4-4-4-4-4-2-2-2-2-2-2-2-2-1-1-1-1-1-1-1-1-|
B------------------------------------------------------------------|

Solo:
G---------------------------------|
D---------------------------------|
A---------------------------------|
E--6-6-6-8-8-8-10-10-10-11--13-16-|
B---------------------------------|

Order:
Intro x 4
Verse I x 2
Chorus x 2
Intro x 4
Verse I x 1
Verse II x 1
Chorus x 4
Intro x 8
--Pause--Guitar Only--
Chorus x 7
Solo x 1
Intro x 4


This is my 200th tab.Be sure check out all my others!
            
Submit corrections

comments powered by Disqus
↑ Back to top | Papa Roach Bass for Blood. Lyrics for acoustic guitar and electric guitar. Tablatures and chords are parodies/interpretations of the original songs. You may use it for private study, scholarship, research or language learning purposes only