» » »

Paolo Santos, Magasin Bass tabs (ver.1)

Artists:  A B C D E F G H I J K L M N O P Q R S T U V W X Y Z # 

Magasin Bass tabs (ver.1)

Paolo Santos Tabs
 Rating:
4/5 (4 votes)
Magasin lessons Tabs too difficult? Try these video lessons and learn fast
                -------------------------------------------------------------------------------
-------------------------------------------------------------------------------




Tuning: Standard Tuning
        EADG
 Intro
G|-------------------|-------------------|
D|-------------------|-------------------|
A|--3-3-3-3-3-3-3-3--|-------------------|
E|-------------------|--0-0-0-0-0-0-0-0--|
  Ooooohhh...

G|-------------------|-------------------|
D|-------------------|-------------------|
A|-------------------|-------------------|
E|--5-5-5-5-5-5-5-5--|--1-1-1-1-1-1-1-1--|
  Ooohhhh.....

Verse I
Time Signature: 4/4
G|-------------------|-------------------|------------------|
D|-------------------|--2------2------2--|------------------|
A|--3------3------3--|-------------------|------------------|
E|-------------------|-------------------|--5------5-----5--|
  Kita kita            sa isang magasin.......
  Isang tindahan       sa may Baclaran.....Napatingin

G|-------------------|
D|-------------------|
A|-------------------|
E|--1------1------1--|
  Buhok mo'y green
  Sa 'yong kagandahan

Fill
G|--------------------|
D|-------2------------|
A|--2h3------5------7-|
E|--------------------|

Verse II
G|-------------------|-------------------|------------------|
D|-------------------|--2------2------2--|------------------|
A|--3------3------3--|-------------------|------------------|
E|-------------------|-------------------|--5------5-----5--|
  Naaalala mo pa ba....................
  Tinawanan pa kita...........

G|-------------------|
D|-------------------|
A|-------------------|
E|--1------1------1--|
  sisikat ka

G|---------------------------------------|
D|---------------------------------------|
A|---------------------------------------|
E|--1-1-1-1-1-1-1-1-1-1-1-1-1-1-1-1------|
  ngunit ngayon..........hey


G|-------------------|-------------------|-------------------|
D|-------------------|--2-2-2-2-2-2-2-2--|-------------------|
A|--3-3-3-3-3-3-3-3--|-------------------|-------------------|
E|-------------------|-------------------|--5-5-5-5-5-5-5-5--|
Iba na 'yong ngiti  iba na ang yong tingin............

G|-------------------|
D|-------------------|
A|-------------------|
E|--1-1-1-1-1-1-1-1--|
Sa'yoooohhh

Fill
G|--------------------|
D|-------2------------|
A|--2h3------5------7-|
E|--------------------|

Verse III
G|-------------------|-------------------|------------------|
D|-------------------|--2------2------2--|------------------|
A|--3------3------3--|-------------------|------------------|
E|-------------------|-------------------|--5------5-----5--|
  Siguro ay may kotse ka na ngayon...........
  Siguro ay malapit ka na rin................

G|-------------------|
D|-------------------|
A|-------------------|
E|--1------1------1--|
  Damit mo'y gawa ni Sotto

G|-------------------------------------|
D|-------------------------------------|
A|-------------------------------------|
E|--1-1-1-1-1-1-1-1-1-1-1-1-1-1-1-1-1--|
  Wide Universe.....kasi

Repeat Chorus except last two lines
Adlib ( do chords on chorus )

Verse IV
G|-------------------|-------------------|------------------|
D|-------------------|--2------2------2--|------------------|
A|--3------3------3--|-------------------|------------------|
E|-------------------|-------------------|--5------5-----5--|
  Nakita kita sa isang magasin..........
  Bastos pala ang pmagat..........

G|-------------------|
D|-------------------|
A|-------------------|
E|--1------1------1--|
  di ko napansin..

G|-------------------------------------|
D|-------------------------------------|
A|-------------------------------------|
E|--1-1-1-1-1-1-1-1-1-1-1-1-1-1-1-1-1--|
  Katotohanan............

Repeat chorus except last two lines

Verse V
G|-------------------|-------------------|------------------|
D|-------------------|--2------2------2--|------------------|
A|--3------3------3--|-------------------|------------------|
E|-------------------|-------------------|--5------5-----5--|
  Nasaan ka na kaya.......
  
G|-------------------------------------|
D|-------------------------------------|
A|-------------------------------------|
E|--1-1-1-1-1-1-1-1-1-1-1-1-1-1-1-1-1--|
  Centerfold ka na......

G|-------------------|-------------------|-------------------|
D|-------------------|--2-2-2-2-2-2-2-2--|-------------------|
A|--3-3-3-3-3-3-3-3--|-------------------|-------------------|
E|-------------------|-------------------|--5-5-5-5-5-5-5-5--|

G|-------------------|
D|-------------------|
A|-------------------|
E|--1-1-1-1-1-1-1-1--|

G|-------------------|-------------------|-------------------|
D|-------------------|--2-2-2-2-2-2-2-2--|-------------------|
A|--3-3-3-3-3-3-3-3--|-------------------|-------------------|
E|-------------------|-------------------|--5-5-5-5-5-5-5-5--|
 Hoooooooooooooo...........Hhooohoooo..............

G|-------------------|-------------------|
D|-------------------|-------------------|
A|-------------------|--3-3-3-3-3-3-3-3--|
E|--1-1-1-1-1-1-1-1--|-------------------|
  hooooooooooooooo                          end!

| /  slide up
| \  slide down
| h  hammer-on
| p  pull-off
| ~  vibrato
| +  harmonic
| x  Mute note
===============================================================================
            
Submit corrections

comments powered by Disqus
↑ Back to top | Paolo Santos Bass for Magasin. Lyrics for acoustic guitar and electric guitar. Tablatures and chords are parodies/interpretations of the original songs. You may use it for private study, scholarship, research or language learning purposes only