» » »

Everything You Want Tabs (ver.1)

Artists:  A B C D E F G H I J K L M N O P Q R S T U V W X Y Z # 

Everything You Want Tabs (ver.1)

Paolo Santos
Rating:
5/5 (3 votes)

Tabs too difficult? Try these video lessons and learn fast.
                
This is Paolo Santos' version of Vertical Horizons' Everything You Want.
This is my first tab. I think it is very accurate.

Intro:

E---0-0--0-0--0--0-0--0--3-2-|
B--3----3----3--3----3--3----|
G----------------------------| 2x
D----------------------------|
A----------------------------|
E----------------------------|

E-------------------|
B--1----0------3--1-|
G--0h2--0------0--0-|
D--0h2—-0h2----4--2-|
A--0----2------5--3-|
E--------------5----|

Verses:

E-------------------|
B--1----0------3--1-|
G--0h2--0------0--0-|
D--0h2—-0h2----4--2-|
A--0----2------5--3-|
E--------------5----|

Chorus:

E------------------|
B--1---3---3---1---|
G--2---0---0---0---| 4x
D--2---0---4---2---|
A--0---2---5---3---|
E------3---5-------|

Bridge:

E------------------------------|
B---0------3-------0------3--1-|
G---0------0-------0------0--0-| 2x
D---2------4-------2------4--2-|
A---2------5-------2------5--3-|
E----------5--------------5----|

Chorus 2:

E-----------------------|
G---1--3---------3--1---|
B---2--0---------0--0---|
D---2--0----3x---4--2---|
A---0--2---------5--3---|
E------3---------5------|

E-------------------|
G---1---3---3---1---|
B---2---0---0---0---|
D---2---0---4---2---|
A---0---2---5---3---|
E-------3---5-------|

-End-
Congrats to the graduates of Talavera National High School, batch 2005!
Especially all IV-Rizal students. May tab na ko! Yebahh!
            
Tabs too difficult? Try these video lessons and learn fast.




comments powered by Disqus
↑ Back to top | Tablatures and chords are parodies/interpretations of the original songs. You may use it for private study, scholarship, research or language learning purposes only