>
 >
Everything You Want

Everything You Want Guitar Tabs

Paolo Santos - Everything You Want chords, tabs, tablatures, lyrics

Guitar lessons | Add/correct | Request | Top 50 tabs Artists:  A B C D E F G H I J K L M N O P Q R S T U V W X Y Z 0-9

Everything You Want Guitar Tabs – Paolo Santos

CD, Sheet music, Poster

Do you like Everything You Want? Share with your friends now
ChordsTabsUkulele

This is Paolo Santos' version of Vertical Horizons' Everything You Want.
This is my first tab. I think it is very accurate.

Intro:

E---0-0--0-0--0--0-0--0--3-2-|
B--3----3----3--3----3--3----|
G----------------------------| 2x
D----------------------------|
A----------------------------|
E----------------------------|

E-------------------|
B--1----0------3--1-|
G--0h2--0------0--0-|
D--0h2-0h2----4--2-|
A--0----2------5--3-|
E--------------5----|

Verses:

E-------------------|
B--1----0------3--1-|
G--0h2--0------0--0-|
D--0h2-0h2----4--2-|
A--0----2------5--3-|
E--------------5----|

Chorus:

E------------------|
B--1---3---3---1---|
G--2---0---0---0---| 4x
D--2---0---4---2---|
A--0---2---5---3---|
E------3---5-------|

Bridge:

E------------------------------|
B---0------3-------0------3--1-|
G---0------0-------0------0--0-| 2x
D---2------4-------2------4--2-|
A---2------5-------2------5--3-|
E----------5--------------5----|

Chorus 2:

E-----------------------|
G---1--3---------3--1---|
B---2--0---------0--0---|
D---2--0----3x---4--2---|
A---0--2---------5--3---|
E------3---------5------|

E-------------------|
G---1---3---3---1---|
B---2---0---0---0---|
D---2---0---4---2---|
A---0---2---5---3---|
E-------3---5-------|

-End-
Congrats to the graduates of Talavera National High School, batch 2005!
Especially all IV-Rizal students. May tab na ko! Yebahh!





Comments


Popular Paolo Santos tabs & chords
Because Of You Chords
Magasin 1 Chords
Moonlight Over Paris 1 Chords
Moonlight Over Paris 2 Chords
Akoy Sayo Ikay Akin Tabs
Close Tabs
Officially Missing You 1 Tabs
Only Hope Tabs
Princess Ukulele
Real Thing Ukulele


Song lyrics



↑ Back to top | Tablatures and chords are parodies/interpretations of the original songs. You may use it for private study, scholarship, research or language learning purposes only
© 2014 AZChords.com Contact us | Privacy policy | DMCA | Add/correct tabs | Request tabs | Top 50 tabs