» » »

Paolo Santos, Everything You Want Chords (ver.1)

Artists:  A B C D E F G H I J K L M N O P Q R S T U V W X Y Z # 

Everything You Want Chords (ver.1)

Paolo Santos Tabs
4.2/5 (5 votes)
Everything You Want lessons Tabs too difficult? Try these video lessons and learn fast
                (Vertical Horizon)
paul Michael mayores
  Am E7sus4   E? Cadd9
E -----0------0----0--|
B -1---0------3----3--|
G -2---2------2----0--|
D -2---0------0----2--|
A -----2------2----3--|
E --------------------|


E -0-0-0-0-0-0-0-0-0-0-0-0-0-0-0-0-0-0-0-0-0-0-0-0-0-0-0-0-0-0-0-0--|
B -3-5-5-3-5-5-3-5-3-5-5-3-5-5-8-7-3-5-5-3-5-5-3-5-3-5-5-3-5-5-1-0--|
G ------------------------------------------------------------------|
D ------------------------------------------------------------------|
A ------------------------------------------------------------------|
E ------------------------------------------------------------------|

Verse I: Am-E7sus4-E?-Cadd9
Somewhere they're speaking, it's already coming in
Oh and it's rising in the back of your mind
You never could get it unless you were fed it
And now you're here and you don't know why

Verse II: Am-E7sus4-E?-Cadd9
Under the skin this are the scared heart
Pass to places where you used to learn
You hallowed and listen, listen and wait for the...
Echoes of angel that that won't return

Chorus: Am-G-Em-D (3x) then Am-G-D-C
He's everything you want, he's everything you need
He's everything inside of you that you wish you could be
He says all the right things at exactly the right time
But he means nothing to you and you don't know why

Verse III: Am-E7sus4-E?-Cadd9
Waiting for someone to put you together, waiting for someone to push you away
There's always another you want to discover
There's always something more that you wish he'd say


Bridge: Em-C-Em-D-C (2x)
But you'll just sit tight and watching her eyes
It's only what you're waiting for
And you'll be just fine when open her eyes
It's only what you're asking for

Verse IV: Am-E7sus4-E?-Cadd9
Out of the island and into the highway
Pass to places where you used to return
You never did notice unless you hide away
But the anchors of angels that won't return

(Chorus 2x)
Submit corrections

comments powered by Disqus
↑ Back to top | Paolo Santos Chords for Everything You Want. Lyrics for acoustic guitar and electric guitar. Tablatures and chords are parodies/interpretations of the original songs. You may use it for private study, scholarship, research or language learning purposes only