>
 >
New Perspective

New Perspective Guitar Tabs

Panic At The Disco - New Perspective chords, tabs, tablatures, lyrics

Guitar lessons | Add/correct | Request | Top 50 tabs Artists:  A B C D E F G H I J K L M N O P Q R S T U V W X Y Z 0-9

New Perspective Guitar Tabs – Panic At The Disco

CD, Sheet music, Poster

Do you like New Perspective? Share with your friends now
Bass TabsBass Tabs v2ChordsChords v2Chords v3Chords v4Chords v5Chords v6Chords v7TabsUkuleleUkulele v2

NEW PERSPECTIVE
As recorded by Panic! at the Disco
(From the 2009 Album JENNIFER'S BODY: ORIGINAL MOTION PICTURE SOUNDTRACK)

        

Words and Music by Brendon Urie

Gtr I (E A D G B E) - 'Distortion 1'
Gtr II (E A D G B E) - 'Distortion 2'
Gtr III (E A D G B E) - 'Piano'
Gtr IV (E A D G B E) - 'Vibraphone'

 Intro
  Q=170
 4/4
  Gtr I
  E E E E E E Q    E E E E E E E E   E E E E E E Q    E E E E E E E E
|----------------|-----------------|----------------|------------------|
|-3---3-3-3-3-3--|-3-3-3---3---3---|-3---3-3-3-3-3--|-3-3-3-3-3-3-3-3--|
|-4---5-5-5-4-5--|-2-2-2---2---2---|-4---5-5-5-4-5--|-2-2-2-2-2-2-2-2--|
|-5---5-5-5-5-5--|-0-0-0---0---0---|-5---5-5-5-5-5--|-0-0-0-0-0-0-0-0--|
|-----3-3-3---3--|-----------------|-----3-3-3---3--|------------------|
|----------------|-----------------|----------------|------------------|
|
| Gtr II
| E E E E E E Q    E E E E E E E E   E E E E E E Q    E E E E E E E E
|-7---5-5-5-3-3--|-0-3-0---5---3---|-7---5-5-5-3-3--|-0-3-0---5---3----|
|-8---5-5-5-3-3--|-0-3-0---5---3---|-8---5-5-5-3-3--|-0-3-0---5---3----|
|----------------|-----------------|----------------|------------------|
|----------------|-----------------|----------------|------------------|
|----------------|-----------------|----------------|------------------|
|----------------|-----------------|----------------|------------------|


  E E E E E E Q    E E E E E E E E
|----------------|-----------------|
|-3---3-3-3-3-3--|-3-3-3---3---3---|
|-4---5-5-4-5-5--|-2-2-2---2---2---|
|-5---5-5-5-5-5--|-0-0-0---0---0---|
|-----3-3---3-3--|-----------------|
|----------------|-----------------|
|
| E E E E E E Q    E E E E E E E E
|-7---5-5-5-3-3--|-0-3-0---5---3---|
|-8---5-5-5-3-3--|-0-3-0---5---3---|
|----------------|-----------------|
|----------------|-----------------|
|----------------|-----------------|
|----------------|-----------------|


  E E E E E E Q    E E E E  E E  E   E
|----------------|---------------------------|
|-3---3-3-3-3-3--|-3-3-3-3--3-3--3---3-------|
|-4---5-5-4-5-5--|-2-2-2-2--2-2--2---2-------|
|-5---5-5-5-5-5--|-0-0-0-0--0-0--0---0-------|
|-----3-3---3-3--|---------------------------|
|----------------|---------------------------|
|
|                                        ~~~
| E E E E E E Q    E E E E  Q    E  +T   S.
|-7---5-5-5-3-3--|-0-3-0---------------------|
|-8---5-5-5-3-3--|-0-3-0---12---13-(13)-12---|
|----------------|---------------------------|
|----------------|---------------------------|
|----------------|---------------------------|
|----------------|---------------------------|


    E  E E E E E Q    E E E E E E E E   E E E E E E Q    E E E E E E E E
|-------------------|-----------------|----------------|-----------------||
|---3----3-3-3-3-3--|-3-3-3---3---3---|-3---3-3-3-3-3--|-3-3-3-3-3-3-3-3-||
|---4----5-5-4-5-5--|-2-2-2---2---2---|-4---5-5-4-5-5--|-2-2-2-2-2-2-2-2-||
|---5----5-5-5-5-5--|-0-0-0---0---0---|-5---5-5-5-5-5--|-0-0-0-0-0-0-0-0-||
|--------3-3---3-3--|-----------------|-----3-3---3-3--|-----------------||
|-------------------|-----------------|----------------|-----------------||
|
|   ~~~~
|  +W                 E E E E E E E E   E E E E E E Q    E E E E E E E E
|-------------------|-0-3-0---5---3---|-7---5-5-5-3-3--|-0-3-0---5---3---||
|-(12)--------------|-0-3-0---5---3---|-8---5-5-5-3-3--|-0-3-0---5---3---||
|-------------------|-----------------|----------------|-----------------||
|-------------------|-----------------|----------------|-----------------||
|-------------------|-----------------|----------------|-----------------||
|-------------------|-----------------|----------------|-----------------||


 Verse
    H.          +Q       W                W                W
|----------------------|----------------|----------------|----------------|
|----------------------|----------------|----------------|----------------|
|-/12----------(12)\---|----------------|----------------|----------------|
|----------------------|----------------|----------------|----------------|
|----------------------|----------------|----------------|----------------|
|----------------------|----------------|----------------|----------------|
|
|   Q   E Q  E   E   E   Q   E Q  E E E   Q   E Q  E E E   Q   E Q  E E E
|---3---3-3--3---3---3-|-0---0-0--0-0-0-|-0---0-0--0-0-0-|----------------|
|---0---0-0--0---0---0-|-0---0-0--0-0-0-|-1---1-1--1-1-1-|-1---1-1--1-1-1-|
|---0---0-0--0---0---0-|-0---0-0--0-0-0-|-0---0-0--0-0-0-|-2---2-2--2-2-2-|
|---0---0-0--0---0---0-|-2---2-2--2-2-2-|-2---2-2--2-2-2-|-1---1-1--1-1-1-|
|---2---2-2--2---2---2-|-2---2-2--2-2-2-|-3---3-3--3-3-3-|----------------|
|---3---3-3--3---3---3-|-0---0-0--0-0-0-|-0---0-0--0-0-0-|----------------|
|
| Gtr III
|   H.           Q       H.         Q     H.         Q     H.         Q
|---3------------------|-0--------------|-0--------------|----------------|
|---0------------------|-0--------------|-1--------------|-1--------------|
|---0------------0-----|-0----------0---|-0----------0---|-2--------------|
|----------------------|----------------|----------------|-1----------1---|
|----------------------|----------------|----------------|----------------|
|----------------------|----------------|----------------|----------------|


  W                W                W                E  E E E E E E E
|----------------|----------------|----------------|------------------|
|----------------|----------------|----------------|------------------|
|----------------|----------------|----------------|-9--7-------------|
|----------------|----------------|----------------|------9-7-5-------|
|----------------|----------------|----------------|------------7-5-7-|
|----------------|----------------|----------------|------------------|
|
| Q   E Q  E E E   Q   E Q  E E E   Q   E Q  E E E   Q    E Q   E E E
|-3---3-3--3-3-3-|-0---0-0--0-0-0-|-0---0-0--0-0-0-|------------------|
|-0---0-0--0-0-0-|-0---0-0--0-0-0-|-1---1-1--1-1-1-|-1----1-1---1-1-1-|
|-0---0-0--0-0-0-|-0---0-0--0-0-0-|-0---0-0--0-0-0-|-2----2-2---2-2-2-|
|-0---0-0--0-0-0-|-2---2-2--2-2-2-|-2---2-2--2-2-2-|-1----1-1---1-1-1-|
|-2---2-2--2-2-2-|-2---2-2--2-2-2-|-3---3-3--3-3-3-|------------------|
|-3---3-3--3-3-3-|-0---0-0--0-0-0-|-0---0-0--0-0-0-|------------------|
|
| H.         Q     H.         Q     H.         Q     H.           Q
|-3--------------|-0--------------|-0--------------|------------------|
|-0--------------|-0--------------|-1--------------|-1----------------|
|-0----------0---|-0----------0---|-0----------0---|-2----------------|
|----------------|----------------|----------------|-1------------1---|
|----------------|----------------|----------------|------------------|
|----------------|----------------|----------------|------------------|


  E  E E E E E E E   E  E E E E E E E   E  E E E E E E E   E  E E E E E E E
|-3----x-x-3---x-x-|-0----x-x-0---x-x-|-0----x-x-0---x-x-|------x-x-----x-x-|
|-0----x-x-0---x-x-|-0----x-x-0---x-x-|-1----x-x-1---x-x-|-1----x-x-1---x-x-|
|-0----x-x-0---x-x-|-0----x-x-0---x-x-|-0----x-x-0---x-x-|-2----x-x-2---x-x-|
|------------------|------------------|------------------|-1--------1-------|
|------------------|------------------|------------------|------------------|
|------------------|------------------|------------------|------------------|
|
| Q    E Q   E E E   Q    E Q   E E E   Q    E Q   E E E   Q    E Q   E E E
|-3----3-3---3-3-3-|-0----0-0---0-0-0-|-0----0-0---0-0-0-|------------------|
|-0----0-0---0-0-0-|-0----0-0---0-0-0-|-1----1-1---1-1-1-|-1----1-1---1-1-1-|
|-0----0-0---0-0-0-|-0----0-0---0-0-0-|-0----0-0---0-0-0-|-2----2-2---2-2-2-|
|-0----0-0---0-0-0-|-2----2-2---2-2-2-|-2----2-2---2-2-2-|-1----1-1---1-1-1-|
|-2----2-2---2-2-2-|-2----2-2---2-2-2-|-3----3-3---3-3-3-|------------------|
|-3----3-3---3-3-3-|-0----0-0---0-0-0-|-0----0-0---0-0-0-|------------------|
|
| H.           Q     H.           Q     H.           Q     H.           Q
|-3----------------|-0----------------|-0----------------|------------------|
|-0----------------|-0----------------|-1----------------|-1----------------|
|-0------------0---|-0------------0---|-0------------0---|-2----------------|
|------------------|------------------|------------------|-1------------1---|
|------------------|------------------|------------------|------------------|
|------------------|------------------|------------------|------------------|


  E  E E E E E E E   E  E E E E E E E   E  E E E E E E E   E  E E E E E E E
|-3----x-x-3---x-x-|-0----x-x-0---x-x-|-0----x-x-0---x-x-|------------------||
|-0----x-x-0---x-x-|-0----x-x-0---x-x-|-1----x-x-1---x-x-|------------------||
|-0----x-x-0---x-x-|-0----x-x-0---x-x-|-0----x-x-0---x-x-|-9--7-------------||
|------------------|------------------|------------------|------9-7-5-------||
|------------------|------------------|------------------|------------7-5-7-||
|------------------|------------------|------------------|------------------||
|
| Q    E Q   E E E   Q    E Q   E E E   Q    E Q   E E E   Q    E Q   E E E
|-3----3-3---3-3-3-|-0----0-0---0-0-0-|-0----0-0---0-0-0-|------------------||
|-0----0-0---0-0-0-|-0----0-0---0-0-0-|-1----1-1---1-1-1-|-1----1-1---1-1-1-||
|-0----0-0---0-0-0-|-0----0-0---0-0-0-|-0----0-0---0-0-0-|-2----2-2---2-2-2-||
|-0----0-0---0-0-0-|-2----2-2---2-2-2-|-2----2-2---2-2-2-|-1----1-1---1-1-1-||
|-2----2-2---2-2-2-|-2----2-2---2-2-2-|-3----3-3---3-3-3-|------------------||
|-3----3-3---3-3-3-|-0----0-0---0-0-0-|-0----0-0---0-0-0-|------------------||
|
| H.           Q     H.           Q     H.           Q     H.           Q
|-3----------------|-0----------------|-0----------------|------------------||
|-0----------------|-0----------------|-1----------------|-1----------------||
|-0------------0---|-0------------0---|-0------------0---|-2----------------||
|------------------|------------------|------------------|-1------------1---||
|------------------|------------------|------------------|------------------||
|------------------|------------------|------------------|------------------||


 Chorus
  Gtr II                                         Gtrs I, II
  W            +W            W            +H     E E E E
|-0----------|-(0)---------|------------|----------------|
|-1----------|-(1)---------|-1----------|-(1)----1-1---0-|
|-0----------|-(0)---------|-2----------|-(2)----2-2---0-|
|-2----------|-(2)---------|-1----------|-(1)----1-1---0-|
|-3----------|-(3)---------|-3----------|-(3)----------2-|
|-0----------|-(0)---------|------------|--------------3-|
|
| Gtr III
| H     H       H     H      H     H       W
|------------|-------------|------------|----------------|
|------------|-------------|------------|----------------|
|------19----|-14-----9----|-7----16----|--7-------------|
|------------|-------------|------------|----------------|
|------------|-------------|------------|----------------|
|------------|-------------|------------|----------------|


  +E  E Q  Q  E E   Q   Q  E E E E   +Q   Q  Q  E E   E  E Q  Q  E E
|-----------------|-0---0--0-0-0-0-|-(0)--0--0--0-0-|-0--0-0--0--0---|
|-(0)-0-0--0--0-0-|-0---0--0-0-0-1-|-(1)--1--1--1-1-|-1--1-1--1--1-0-|
|-(0)-0-0--0--0-0-|-0---0--0-0-0-0-|-(0)--0--0--0-0-|-2--2-2--2--2-0-|
|-(0)-0-0--0--0-0-|-2---2--2-2-2-2-|-(2)--2--2--2-2-|-1--1-1--1--1-0-|
|-(2)-2-2--2--2-2-|-2---2--2-2-2-3-|-(3)--3--3--3-3-|-3--3-3--3--3-2-|
|-(3)-3-3--3--3-3-|-0---0--0-0-0-0-|-(0)--0--0--0-0-|--------------3-|
|
|  H.         Q     H.         Q      H.        Q     H.         Q
|--3--------------|-0--------------|--0-------------|----------------|
|--0--------------|-0--------------|--1-------------|-1--------------|
|--0----------0---|-0----------0---|--0---------0---|-2--------------|
|-----------------|----------------|----------------|-1----------1---|
|-----------------|----------------|----------------|----------------|
|-----------------|----------------|----------------|----------------|


  +E  E Q  Q  E E   Q   Q  E E E E   +Q   Q  Q  E E   E  E Q  Q  E E
|-----------------|-0---0--0-0-0-0-|-(0)--0--0--0-0-|-0--0-0--0--0---|
|-(0)-0-0--0--0-0-|-0---0--0-0-0-1-|-(1)--1--1--1-1-|-1--1-1--1--1-0-|
|-(0)-0-0--0--0-0-|-0---0--0-0-0-0-|-(0)--0--0--0-0-|-2--2-2--2--2-0-|
|-(0)-0-0--0--0-0-|-2---2--2-2-2-2-|-(2)--2--2--2-2-|-1--1-1--1--1-0-|
|-(2)-2-2--2--2-2-|-2---2--2-2-2-3-|-(3)--3--3--3-3-|-3--3-3--3--3-2-|
|-(3)-3-3--3--3-3-|-0---0--0-0-0-0-|-(0)--0--0--0-0-|--------------3-|
|
|  H.         Q     H.         Q      H.        Q     H.         Q
|--3--------------|-0--------------|--0-------------|----------------|
|--0--------------|-0--------------|--1-------------|-1--------------|
|--0----------0---|-0----------0---|--0---------0---|-2--------------|
|-----------------|----------------|----------------|-1----------1---|
|-----------------|----------------|----------------|----------------|
|-----------------|----------------|----------------|----------------|


  +Q   Q  Q  E E   Q   Q  E E E E   +Q   Q  Q  E E   E  E Q  Q  E E
|----------------|-0---0--0-0-0-0-|-(0)--0--0--0-0-|-0--0-0--0--0-0-|
|-(0)--0--0--0-0-|-0---0--0-0-0-1-|-(1)--1--1--1-1-|-1--1-1--1--1-1-|
|-(0)--0--0--0-0-|-0---0--0-0-0-0-|-(0)--0--0--0-0-|-2--2-2--2--2-2-|
|-(0)--0--0--0-0-|-2---2--2-2-2-2-|-(2)--2--2--2-2-|-1--1-1--1--1-1-|
|-(2)--2--2--2-2-|-2---2--2-2-2-3-|-(3)--3--3--3-3-|-3--3-3--3--3-3-|
|-(3)--3--3--3-3-|-0---0--0-0-0-0-|-(0)--0--0--0-0-|----------------|
|
|  H.        Q     H.         Q      H.        Q     H.         Q
|--3-------------|-0--------------|--0-------------|----------------|
|--0-------------|-0--------------|--1-------------|-1--------------|
|--0---------0---|-0----------0---|--0---------0---|-2--------------|
|----------------|----------------|----------------|-1----------1---|
|----------------|----------------|----------------|----------------|
|----------------|----------------|----------------|----------------|


  Q   Q  Q  E E   Q   Q  E E E E   +Q   Q  Q  E E   E  E Q  Q  E E
|---------------|-0---0--0-0-0-0-|-(0)--0--0--0-0-|-0--0-0--0--0-0-||
|-0---0--0--0-0-|-0---0--0-0-0-1-|-(1)--1--1--1-1-|-1--1-1--1--1-1-||
|-0---0--0--0-0-|-0---0--0-0-0-0-|-(0)--0--0--0-0-|-2--2-2--2--2-2-||
|-0---0--0--0-0-|-2---2--2-2-2-2-|-(2)--2--2--2-2-|-1--1-1--1--1-1-||
|-2---2--2--2-2-|-2---2--2-2-2-3-|-(3)--3--3--3-3-|-3--3-3--3--3-3-||
|-3---3--3--3-3-|-0---0--0-0-0-0-|-(0)--0--0--0-0-|----------------||
|
| H.        Q     H.         Q      H.        Q     H.         Q
|-3-------------|-0--------------|--0-------------|----------------||
|-0-------------|-0--------------|--1-------------|-1--------------||
|-0---------0---|-0----------0---|--0---------0---|-2--------------||
|---------------|----------------|----------------|-1----------1---||
|---------------|----------------|----------------|----------------||
|---------------|----------------|----------------|----------------||


 Intro 2
  E E E E E E Q    E E E E E E E E
|----------------|-----------------|
|-3---3-3-3-3-3--|-3-3-3---3---3---|
|-4---5-5-5-4-5--|-2-2-2---2---2---|
|-5---5-5-5-5-5--|-0-0-0---0---0---|
|-----3-3-3---3--|-----------------|
|----------------|-----------------|
|
| Gtr II
| E E E E E E Q    E E E E E E E E
|-7---5-5-5-3-3--|-0-3-0---5---3---|
|-8---5-5-5-3-3--|-0-3-0---5---3---|
|----------------|-----------------|
|----------------|-----------------|
|----------------|-----------------|
|----------------|-----------------|


  E E E E E E Q    E E E E  E E  E   E
|----------------|---------------------------|
|-3---3-3-3-3-3--|-3-3-3-3--3-3--3---3-------|
|-4---5-5-5-4-5--|-2-2-2-2--2-2--2---2-------|
|-5---5-5-5-5-5--|-0-0-0-0--0-0--0---0-------|
|-----3-3-3---3--|---------------------------|
|----------------|---------------------------|
|
|                                        ~~~
| E E E E E E Q    E E E E  Q    E  +T   S.
|-7---5-5-5-3-3--|-0-3-0---------------------|
|-8---5-5-5-3-3--|-0-3-0---12---13-(13)-12---|
|----------------|---------------------------|
|----------------|---------------------------|
|----------------|---------------------------|
|----------------|---------------------------|


    E  E E E E E Q    E E E E E E E E   E E E E E E Q    E E E E E E E E
|-------------------|-----------------|----------------|-----------------||
|---3----3-3-3-3-3--|-3-3-3---3---3---|-3---3-3-3-3-3--|-3-3-3-3-3-3-3-3-||
|---4----5-5-5-4-5--|-2-2-2---2---2---|-4---5-5-5-4-5--|-2-2-2-2-2-2-2-2-||
|---5----5-5-5-5-5--|-0-0-0---0---0---|-5---5-5-5-5-5--|-0-0-0-0-0-0-0-0-||
|--------3-3-3---3--|-----------------|-----3-3-3---3--|-----------------||
|-------------------|-----------------|----------------|-----------------||
|
|   ~~~~
|  +W                 E E E E E E E E   E E E E E E Q    E E E E E E E E
|-------------------|-0-3-0---5---3---|-7---5-5-5-3-3--|-0-3-0---5---3---||
|-(12)--------------|-0-3-0---5---3---|-8---5-5-5-3-3--|-0-3-0---5---3---||
|-------------------|-----------------|----------------|-----------------||
|-------------------|-----------------|----------------|-----------------||
|-------------------|-----------------|----------------|-----------------||
|-------------------|-----------------|----------------|-----------------||


 Verse 2
    H.            +Q       W
|------------------------|------------------|
|------------------------|------------------|
|-/12------------(12)\---|------------------|
|------------------------|------------------|
|------------------------|------------------|
|------------------------|------------------|
|
|   E  E E E E E   E   E   E  E E E E E E E
|------------------------|------------------|
|---0--0-0-0-0-0-------0-|-0--0-0-0-0-0---0-|
|---0--0-0-0-0-0-------0-|-0--0-0-0-0-0---0-|
|---0--0-0-0-0-0-------0-|-2--2-2-2-2-2---2-|
|---2--2-2-2-2-2-------2-|-2--2-2-2-2-2---2-|
|---3--3-3-3-3-3-------3-|-0--0-0-0-0-0---0-|
|
| Gtr III
|   H.             Q       H.           Q
|---3--------------------|-0----------------|
|---0--------------------|-0----------------|
|---0--------------0-----|-0------------0---|
|------------------------|------------------|
|------------------------|------------------|
|------------------------|------------------|


  W                  W
|------------------|------------------|
|------------------|------------------|
|------------------|------------------|
|------------------|------------------|
|------------------|------------------|
|------------------|------------------|
|
| E  E E E E E E E   E  E E E E E E E
|------------------|------------------|
|-1--1-1-1-1-1---1-|-1--1-1-1-1-1---1-|
|-0--0-0-0-0-0---0-|-2--2-2-2-2-2---2-|
|-2--2-2-2-2-2---2-|-1--1-1-1-1-1---1-|
|-3--3-3-3-3-3---3-|-3--3-3-3-3-3---3-|
|-0--0-0-0-0-0---0-|------------------|
|
| H.           Q     H.           Q
|-0----------------|------------------|
|-1----------------|-1----------------|
|-0------------0---|-2----------------|
|------------------|-1------------1---|
|------------------|------------------|
|------------------|------------------|


  W                  W                  W                  E  E E E E E E E
|------------------|------------------|------------------|------------------|
|------------------|------------------|------------------|------------------|
|------------------|------------------|------------------|-9--7-------------|
|------------------|------------------|------------------|------9-7-5-------|
|------------------|------------------|------------------|------------7-5-7-|
|------------------|------------------|------------------|------------------|
|
| E  E E E E E E E   E  E E E E E E E   E  E E E E E E E   E  E E E E E E E
|------------------|------------------|------------------|------------------|
|-0--0-0-0-0-0---0-|-0--0-0-0-0-0---0-|-1--1-1-1-1-1---1-|-1--1-1-1-1-1---1-|
|-0--0-0-0-0-0---0-|-0--0-0-0-0-0---0-|-0--0-0-0-0-0---0-|-2--2-2-2-2-2---2-|
|-0--0-0-0-0-0---0-|-2--2-2-2-2-2---2-|-2--2-2-2-2-2---2-|-1--1-1-1-1-1---1-|
|-2--2-2-2-2-2---2-|-2--2-2-2-2-2---2-|-3--3-3-3-3-3---3-|-3--3-3-3-3-3---3-|
|-3--3-3-3-3-3---3-|-0--0-0-0-0-0---0-|-0--0-0-0-0-0---0-|------------------|
|
| H.           Q     H.           Q     H.           Q     H.           Q
|-3----------------|-0----------------|-0----------------|------------------|
|-0----------------|-0----------------|-1----------------|-1----------------|
|-0------------0---|-0------------0---|-0------------0---|-2----------------|
|------------------|------------------|------------------|-1------------1---|
|------------------|------------------|------------------|------------------|
|------------------|------------------|------------------|------------------|


  Gtrs I, II
  E  E E E E E E E   E  E E E E E E E   E  E E E E E E E   E  E E E E E E E
|------------------|------------------|------------------|------------------|
|-0--0-0-0-0-0---0-|-0--0-0-0-0-0---0-|-1--1-1-1-1-1---1-|-1--1-1-1-1-1---1-|
|-0--0-0-0-0-0---0-|-0--0-0-0-0-0---0-|-0--0-0-0-0-0---0-|-2--2-2-2-2-2---2-|
|-0--0-0-0-0-0---0-|-2--2-2-2-2-2---2-|-2--2-2-2-2-2---2-|-1--1-1-1-1-1---1-|
|-2--2-2-2-2-2---2-|-2--2-2-2-2-2---2-|-3--3-3-3-3-3---3-|-3--3-3-3-3-3---3-|
|-3--3-3-3-3-3---3-|-0--0-0-0-0-0---0-|-0--0-0-0-0-0---0-|------------------|
|
| Gtr III
| H.           Q     H.           Q     H.           Q     H.           Q
|-3----------------|-0----------------|-0----------------|------------------|
|-0----------------|-0----------------|-1----------------|-1----------------|
|-0------------0---|-0------------0---|-0------------0---|-2----------------|
|------------------|------------------|------------------|-1------------1---|
|------------------|------------------|------------------|------------------|
|------------------|------------------|------------------|------------------|


  E  E E E E E E E   E  E E E E E E E   E  E E E E E E E   E  E E E E E E E
|------------------|------------------|------------------|------------------|
|-0--0-0-0-0-0---0-|-0--0-0-0-0-0---0-|-1--1-1-1-1-1---1-|-1--1-1-1-1-1---1-|
|-0--0-0-0-0-0---0-|-0--0-0-0-0-0---0-|-0--0-0-0-0-0---0-|-2--2-2-2-2-2---2-|
|-0--0-0-0-0-0---0-|-2--2-2-2-2-2---2-|-2--2-2-2-2-2---2-|-1--1-1-1-1-1---1-|
|-2--2-2-2-2-2---2-|-2--2-2-2-2-2---2-|-3--3-3-3-3-3---3-|-3--3-3-3-3-3---3-|
|-3--3-3-3-3-3---3-|-0--0-0-0-0-0---0-|-0--0-0-0-0-0---0-|------------------|
|
| H.           Q     H.           Q     H.           Q     H.           Q
|-3----------------|-0----------------|-0----------------|------------------|
|-0----------------|-0----------------|-1----------------|-1----------------|
|-0------------0---|-0------------0---|-0------------0---|-2----------------|
|------------------|------------------|------------------|-1------------1---|
|------------------|------------------|------------------|------------------|
|------------------|------------------|------------------|------------------|


  Gtr II                                         Gtrs I, II
  W            +W            W            +H     E E E E
|-0----------|-(0)---------|------------|----------------||
|-1----------|-(1)---------|-1----------|-(1)----1-1---0-||
|-0----------|-(0)---------|-2----------|-(2)----2-2---0-||
|-2----------|-(2)---------|-1----------|-(1)----1-1---0-||
|-3----------|-(3)---------|-3----------|-(3)----------2-||
|-0----------|-(0)---------|------------|--------------3-||
|
| H     H       H     H      H     H       W
|------------|-------------|------------|----------------||
|------------|-------------|------------|----------------||
|------19----|-14-----9----|-7----16----|--7-------------||
|------------|-------------|------------|----------------||
|------------|-------------|------------|----------------||
|------------|-------------|------------|----------------||


 Chorus
  +E  E Q  Q  E E   Q   Q  E E E E   +Q   Q  Q  E E   E  E Q  Q  E E
|-----------------|-0---0--0-0-0-0-|-(0)--0--0--0-0-|-0--0-0--0--0---|
|-(0)-0-0--0--0-0-|-0---0--0-0-0-1-|-(1)--1--1--1-1-|-1--1-1--1--1-0-|
|-(0)-0-0--0--0-0-|-0---0--0-0-0-0-|-(0)--0--0--0-0-|-2--2-2--2--2-0-|
|-(0)-0-0--0--0-0-|-2---2--2-2-2-2-|-(2)--2--2--2-2-|-1--1-1--1--1-0-|
|-(2)-2-2--2--2-2-|-2---2--2-2-2-3-|-(3)--3--3--3-3-|-3--3-3--3--3-2-|
|-(3)-3-3--3--3-3-|-0---0--0-0-0-0-|-(0)--0--0--0-0-|--------------3-|
|
|  H.         Q     H.         Q      H.        Q     H.         Q
|--3--------------|-0--------------|--0-------------|----------------|
|--0--------------|-0--------------|--1-------------|-1--------------|
|--0----------0---|-0----------0---|--0---------0---|-2--------------|
|-----------------|----------------|----------------|-1----------1---|
|-----------------|----------------|----------------|----------------|
|-----------------|----------------|----------------|----------------|


  +E  E Q  Q  E E   Q   Q  E E E E   +Q   Q  Q  E E   E  E Q  Q  E E
|-----------------|-0---0--0-0-0-0-|-(0)--0--0--0-0-|-0--0-0--0--0---|
|-(0)-0-0--0--0-0-|-0---0--0-0-0-1-|-(1)--1--1--1-1-|-1--1-1--1--1-0-|
|-(0)-0-0--0--0-0-|-0---0--0-0-0-0-|-(0)--0--0--0-0-|-2--2-2--2--2-0-|
|-(0)-0-0--0--0-0-|-2---2--2-2-2-2-|-(2)--2--2--2-2-|-1--1-1--1--1-0-|
|-(2)-2-2--2--2-2-|-2---2--2-2-2-3-|-(3)--3--3--3-3-|-3--3-3--3--3-2-|
|-(3)-3-3--3--3-3-|-0---0--0-0-0-0-|-(0)--0--0--0-0-|--------------3-|
|
|  H.         Q     H.         Q      H.        Q     H.         Q
|--3--------------|-0--------------|--0-------------|----------------|
|--0--------------|-0--------------|--1-------------|-1--------------|
|--0----------0---|-0----------0---|--0---------0---|-2--------------|
|-----------------|----------------|----------------|-1----------1---|
|-----------------|----------------|----------------|----------------|
|-----------------|----------------|----------------|----------------|


  +Q   Q  Q  E E   Q   Q  E E E E   +Q   Q  Q  E E   E  E Q  Q  E E
|----------------|-0---0--0-0-0-0-|-(0)--0--0--0-0-|-0--0-0--0--0-0-|
|-(0)--0--0--0-0-|-0---0--0-0-0-1-|-(1)--1--1--1-1-|-1--1-1--1--1-1-|
|-(0)--0--0--0-0-|-0---0--0-0-0-0-|-(0)--0--0--0-0-|-2--2-2--2--2-2-|
|-(0)--0--0--0-0-|-2---2--2-2-2-2-|-(2)--2--2--2-2-|-1--1-1--1--1-1-|
|-(2)--2--2--2-2-|-2---2--2-2-2-3-|-(3)--3--3--3-3-|-3--3-3--3--3-3-|
|-(3)--3--3--3-3-|-0---0--0-0-0-0-|-(0)--0--0--0-0-|----------------|
|
|  H.        Q     H.         Q      H.        Q     H.         Q
|--3-------------|-0--------------|--0-------------|----------------|
|--0-------------|-0--------------|--1-------------|-1--------------|
|--0---------0---|-0----------0---|--0---------0---|-2--------------|
|----------------|----------------|----------------|-1----------1---|
|----------------|----------------|----------------|----------------|
|----------------|----------------|----------------|----------------|


  Q   Q  Q  E E   E  E Q  Q  E E   Q   Q  Q  E E
|---------------|-0--0-0--0--0-0-|-0---0--0--0-0-|
|-0---0--0--0-0-|-0--0-0--0--0-0-|-1---1--1--1-1-|
|-0---0--0--0-0-|-0--0-0--0--0-0-|-0---0--0--0-0-|
|-0---0--0--0-0-|-2--2-2--2--2-2-|-2---2--2--2-2-|
|-2---2--2--2-2-|-2--2-2--2--2-2-|-3---3--3--3-3-|
|-3---3--3--3-3-|-0--0-0--0--0-0-|-0---0--0--0-0-|
|
| H.        Q     H.         Q     H.        Q
|-3-------------|-0--------------|-0-------------|
|-0-------------|-0--------------|-1-------------|
|-0---------0---|-0----------0---|-0---------0---|
|---------------|----------------|---------------|
|---------------|----------------|---------------|
|---------------|----------------|---------------|


                   Gtr I
  E  E Q  Q  E E   +W           +W
|-0--0-0--0--0-0-|-(0)--------|-(0)----||
|-1--1-1--1--1-1-|-(1)--------|-(1)----||
|-2--2-2--2--2-2-|-(2)--------|-(2)----||
|-1--1-1--1--1-1-|-(1)--------|-(1)----||
|-3--3-3--3--3-3-|-(3)--------|-(3)----||
|----------------|------------|--------||
|
| H.         Q      W            W
|----------------|------------|--------||
|-1--------------|--1---------|--------||
|-2--------------|--2---------|--------||
|-1----------1---|--1---------|--------||
|----------------|------------|--------||
|----------------|------------|--------||


 Bridge
  Gtrs I, II
  Q  E E Q  E E   E E Q  E E E E   Q  E E Q  E E   E E Q  E E E E
|---------------|----------------|---------------|----------------|
|-0--0-0----0-0-|-0-0----0-0-0-0-|-1--1-1----1-1-|-1-1----1-1-1-1-|
|-0--0-0----0-0-|-0-0----0-0-0-0-|-0--0-0----0-0-|-0-0----0-0-0-0-|
|-2--2-2----2-2-|-2-2----2-2-2-2-|-2--2-2----2-2-|-2-2----2-2-2-2-|
|-2--2-2----2-2-|-2-2----2-2-2-2-|-3--3-3----3-3-|-3-3----3-3-3-3-|
|-0--0-0----0-0-|-0-0----0-0-0-0-|-0--0-0----0-0-|-0-0----0-0-0-0-|


  Q  E E Q  E E   E E Q  E E E E   Q  E E Q  E E   E E Q  E E E E
|---------------|----------------|---------------|----------------|
|-0--0-0----0-0-|-0-0----0-0-0-0-|-3--3-3----3-3-|-3-3----3-3-3-3-|
|-0--0-0----0-0-|-0-0----0-0-0-0-|-2--2-2----2-2-|-2-2----2-2-2-2-|
|-0--0-0----0-0-|-0-0----0-0-0-0-|-0--0-0----0-0-|-0-0----0-0-0-0-|
|-2--2-2----2-2-|-2-2----2-2-2-2-|-0--0-0----0-0-|-0-0----0-0-0-0-|
|-3--3-3----3-3-|-3-3----3-3-3-3-|-0--0-0----0-0-|-0-0----0-0-0-0-|


  Q   E E   Q       E    E   E  E Q     E   E   E    E
|--------------------------|---------------------------|
|-0---0-0-----------0----0-|-0--0-------0---0---0----0-|
|-0---0-0-----------0----0-|-0--0-------0---0---0----0-|
|-2---2-2-----------2----2-|-2--2-------2---2---2----2-|
|-2---2-2-----------2----2-|-2--2-------2---2---2----2-|
|-0---0-0-----------0----0-|-0--0-------0---0---0----0-|
|
| Gtr IV
| Q.    S S S S S S S E.     Q.     S S S S S S S E.
|-------------3------------|--------------3------------|
|-----------3---3----------|------------3---3----------|
|---------3-------3--------|----------3-------3--------|
|-------3-----------3------|--------3-----------3------|
|--------------------------|---------------------------|
|--------------------------|---------------------------|


  Q   E E   Q       E    E   E  E Q     E   E   E    E
|--------------------------|------------------------------|
|-1---1-1-----------1----1-|-1--1-------1---1---1----1----|
|-0---0-0-----------0----0-|-0--0-------0---0---0----0----|
|-2---2-2-----------2----2-|-2--2-------2---2---2----2----|
|-3---3-3-----------3----3-|-3--3-------3---3---3----3----|
|-0---0-0-----------0----0-|-0--0-------0---0---0----0----|
|
| Q.    S S S S S S S E.     Q.     S S S S S S S E.
|-------------5------------|--------------5---------------|
|-----------5---5----------|------------5---5-------------|
|---------5-------5--------|----------5-------5-----------|
|-------5-----------5------|--------5-----------5---------|
|--------------------------|------------------------------|
|--------------------------|------------------------------|


  Q   E E   Q       E    E   E  E Q     E   E   E    E
|--------------------------|---------------------------|
|-0---0-0-----------0----0-|-0--0-------0---0---0----0-|
|-0---0-0-----------0----0-|-0--0-------0---0---0----0-|
|-0---0-0-----------0----0-|-0--0-------0---0---0----0-|
|-2---2-2-----------2----2-|-2--2-------2---2---2----2-|
|-3---3-3-----------3----3-|-3--3-------3---3---3----3-|
|
| Q.    S S S S S S S E.     Q.     S S S S S S S E.
|-------------3------------|--------------3------------|
|-----------3---3----------|------------3---3----------|
|---------3-------3--------|----------3-------3--------|
|-------3-----------3------|--------3-----------3------|
|--------------------------|---------------------------|
|--------------------------|---------------------------|


  Q   E E   Q       E    E   E  E Q     E   E   E    E
|--------------------------|------------------------------|
|-3---3-3-----------3----3-|-3--3-------3---3---3----3----|
|-2---2-2-----------2----2-|-2--2-------2---2---2----2----|
|-0---0-0-----------0----0-|-0--0-------0---0---0----0----|
|-0---0-0-----------0----0-|-0--0-------0---0---0----0----|
|-0---0-0-----------0----0-|-0--0-------0---0---0----0----|
|
| Q.    S S S S S S S E.     Q.     S S S S S S S E.
|-------------3------------|--------------3---------------|
|-----------3---3----------|------------3---3-------------|
|---------3-------3--------|----------3-------3-----------|
|-------3-----------3------|--------3-----------3---------|
|--------------------------|------------------------------|
|--------------------------|------------------------------|


  Q  E Q  Q  E   E Q  Q  E E E   Q  E Q  Q  E   E Q  Q  E E E
|--------------|---------------|--------------|---------------|
|-0--0-0--0--0-|-0-0--0--0-0-0-|-5--5-5--5--5-|-5-5--5--1-1-1-|
|-0--0-0--0--0-|-0-0--0--0-0-0-|-5--5-5--5--5-|-5-5--5--0-0-0-|
|-2--2-2--2--2-|-2-2--2--2-2-2-|-7--7-7--7--7-|-7-7--7--2-2-2-|
|-2--2-2--2--2-|-2-2--2--2-2-2-|-7--7-7--7--7-|-7-7--7--3-3-3-|
|-0--0-0--0--0-|-0-0--0--0-0-0-|-5--5-5--5--5-|-5-5--5--0-0-0-|


  Q  E Q  Q  E   E Q  Q  E E E   W          +W
|--------------|---------------|----------|--------||
|-0--0-0--0--0-|-0-0--0--0-0-0-|-1--------|-(1)----||
|-0--0-0--0--0-|-0-0--0--0-0-0-|-2--------|-(2)----||
|-0--0-0--0--0-|-0-0--0--0-0-0-|-1--------|-(1)----||
|-2--2-2--2--2-|-2-2--2--2-2-2-|-3--------|-(3)----||
|-3--3-3--3--3-|-3-3--3--3-3-3-|----------|--------||


 Interlude
  Gtr III
  W          W          W          H    H
|-3--------|-0--------|-0--------|-----------|
|-0--------|-0--------|-1--------|-1---------|
|-0--------|-0--------|-0--------|-2---------|
|----------|----------|----------|-1----1----|
|----------|----------|----------|-----------|
|----------|----------|----------|-----------|


  W          W          W          W
|-3--------|-0--------|-0--------|------||
|-0--------|-0--------|-1--------|-1----||
|-0--------|-0--------|-0--------|-2----||
|----------|----------|----------|-1----||
|----------|----------|----------|------||
|----------|----------|----------|------||


 Out-Chorus
  Gtrs I, II
  E  E Q  Q  E E   Q   Q  E E E E   +Q   Q  Q  E E   E  E Q  Q  E E
|----------------|-0---0--0-0-0-0-|-(0)--0--0--0-0-|-0--0-0--0--0---|
|-0--0-0--0--0-0-|-0---0--0-0-0-1-|-(1)--1--1--1-1-|-1--1-1--1--1-0-|
|-0--0-0--0--0-0-|-0---0--0-0-0-0-|-(0)--0--0--0-0-|-2--2-2--2--2-0-|
|-0--0-0--0--0-0-|-2---2--2-2-2-2-|-(2)--2--2--2-2-|-1--1-1--1--1-0-|
|-2--2-2--2--2-2-|-2---2--2-2-2-3-|-(3)--3--3--3-3-|-3--3-3--3--3-2-|
|-3--3-3--3--3-3-|-0---0--0-0-0-0-|-(0)--0--0--0-0-|--------------3-|
|
| Gtr III
| H.         Q     H.         Q      H.        Q     H.         Q
|-3--------------|-0--------------|--0-------------|----------------|
|-0--------------|-0--------------|--1-------------|-1--------------|
|-0----------0---|-0----------0---|--0---------0---|-2--------------|
|----------------|----------------|----------------|-1----------1---|
|----------------|----------------|----------------|----------------|
|----------------|----------------|----------------|----------------|


  +Q   Q  Q  E E   Q   Q  E E E E   +Q   Q  Q  E E   E  E Q  Q  E E
|----------------|-0---0--0-0-0-0-|-(0)--0--0--0-0-|-0--0-0--0--0---|
|-(0)--0--0--0-0-|-0---0--0-0-0-1-|-(1)--1--1--1-1-|-1--1-1--1--1-0-|
|-(0)--0--0--0-0-|-0---0--0-0-0-0-|-(0)--0--0--0-0-|-2--2-2--2--2-0-|
|-(0)--0--0--0-0-|-2---2--2-2-2-2-|-(2)--2--2--2-2-|-1--1-1--1--1-0-|
|-(2)--2--2--2-2-|-2---2--2-2-2-3-|-(3)--3--3--3-3-|-3--3-3--3--3-2-|
|-(3)--3--3--3-3-|-0---0--0-0-0-0-|-(0)--0--0--0-0-|--------------3-|
|
|  H.        Q     H.         Q      H.        Q     H.         Q
|--3-------------|-0--------------|--0-------------|----------------|
|--0-------------|-0--------------|--1-------------|-1--------------|
|--0---------0---|-0----------0---|--0---------0---|-2--------------|
|----------------|----------------|----------------|-1----------1---|
|----------------|----------------|----------------|----------------|
|----------------|----------------|----------------|----------------|


  Q   Q  Q  E E   Q   Q  E E E E   +Q   Q  Q  E E   E  E Q  Q  E E
|---------------|-0---0--0-0-0-0-|-(0)--0--0--0-0-|-0--0-0--0--0-0-|
|-0---0--0--0-0-|-0---0--0-0-0-1-|-(1)--1--1--1-1-|-1--1-1--1--1-1-|
|-0---0--0--0-0-|-0---0--0-0-0-0-|-(0)--0--0--0-0-|-2--2-2--2--2-2-|
|-0---0--0--0-0-|-2---2--2-2-2-2-|-(2)--2--2--2-2-|-1--1-1--1--1-1-|
|-2---2--2--2-2-|-2---2--2-2-2-3-|-(3)--3--3--3-3-|-3--3-3--3--3-3-|
|-3---3--3--3-3-|-0---0--0-0-0-0-|-(0)--0--0--0-0-|----------------|
|
| H.        Q     H.         Q      H.        Q     H.         Q
|-3-------------|-0--------------|--0-------------|----------------|
|-0-------------|-0--------------|--1-------------|-1--------------|
|-0---------0---|-0----------0---|--0---------0---|-2--------------|
|---------------|----------------|----------------|-1----------1---|
|---------------|----------------|----------------|----------------|
|---------------|----------------|----------------|----------------|


  Q   Q  Q  E E   E  E Q  Q  E E   Q   Q  Q  E E
|---------------|-0--0-0--0--0-0-|-0---0--0--0-0-|
|-0---0--0--0-0-|-0--0-0--0--0-0-|-1---1--1--1-1-|
|-0---0--0--0-0-|-0--0-0--0--0-0-|-0---0--0--0-0-|
|-0---0--0--0-0-|-2--2-2--2--2-2-|-2---2--2--2-2-|
|-2---2--2--2-2-|-2--2-2--2--2-2-|-3---3--3--3-3-|
|-3---3--3--3-3-|-0--0-0--0--0-0-|-0---0--0--0-0-|
|
| H.        Q     H.         Q     H.        Q
|-3-------------|-0--------------|-0-------------|
|-0-------------|-0--------------|-1-------------|
|-0---------0---|-0----------0---|-0---------0---|
|---------------|----------------|---------------|
|---------------|----------------|---------------|
|---------------|----------------|---------------|


                   Gtr I
  E  E Q  Q  E E   +W           +W
|-0--0-0--0--0-0-|-(0)--------|-(0)----||
|-1--1-1--1--1-1-|-(1)--------|-(1)----||
|-2--2-2--2--2-2-|-(2)--------|-(2)----||
|-1--1-1--1--1-1-|-(1)--------|-(1)----||
|-3--3-3--3--3-3-|-(3)--------|-(3)----||
|----------------|------------|--------||
|
| H.         Q      W            W
|----------------|------------|--------||
|-1--------------|--1---------|--------||
|-2--------------|--2---------|--------||
|-1----------1---|--1---------|--------||
|----------------|------------|--------||
|----------------|------------|--------||


 Outro
  E E E E E E Q    E E E E E E E E
|----------------|-----------------|
|-3---3-3-3-3-3--|-3-3-3---3---3---|
|-4---5-5-5-4-5--|-2-2-2---2---2---|
|-5---5-5-5-5-5--|-0-0-0---0---0---|
|-----3-3-3---3--|-----------------|
|----------------|-----------------|
|
| Gtr II
| E E E E E E Q    E E E E E E E E
|-7---5-5-5-3-3--|-0-3-0---5---3---|
|-8---5-5-5-3-3--|-0-3-0---5---3---|
|----------------|-----------------|
|----------------|-----------------|
|----------------|-----------------|
|----------------|-----------------|


  E E E E E E Q    E E E E  E E  E   E
|----------------|---------------------------|
|-3---3-3-3-3-3--|-3-3-3-3--3-3--3---3-------|
|-4---5-5-5-4-5--|-2-2-2-2--2-2--2---2-------|
|-5---5-5-5-5-5--|-0-0-0-0--0-0--0---0-------|
|-----3-3-3---3--|---------------------------|
|----------------|---------------------------|
|
|                                        ~~~
| E E E E E E Q    E E E E  Q    E  +T   S.
|-7---5-5-5-3-3--|-0-3-0---------------------|
|-8---5-5-5-3-3--|-0-3-0---12---13-(13)-12---|
|----------------|---------------------------|
|----------------|---------------------------|
|----------------|---------------------------|
|----------------|---------------------------|


   E E E E E E Q    E E E E E E E E   E E E E E E Q    E E E E E E E E
|-----------------|-----------------|----------------|---------------3-*|
|--3---3-3-3-3-3--|-3-3-3---3---3---|-3---3-3-3-3-3--|-3-3-3-3-3-3-3-0-*|
|--4---5-5-5-4-5--|-2-2-2---2---2---|-4---5-5-5-4-5--|-2-2-2-2-2-2-2-0-*|
|--5---5-5-5-5-5--|-0-0-0---0---0---|-5---5-5-5-5-5--|-0-0-0-0-0-0-0-0-*|
|------3-3-3---3--|-----------------|-----3-3-3---3--|---------------2-*|
|-----------------|-----------------|----------------|---------------3-*|
|
|  ~~
|  W                E E E E E E E E   E E E E E E Q    E E E E E E E E
|-----------------|-0-3-0---5---3---|-7---5-5-5-3-3--|-0-3-0---5---3---*|
|-12--------------|-0-3-0---5---3---|-8---5-5-5-3-3--|-0-3-0---5---3---*|
|-----------------|-----------------|----------------|-----------------*|
|-----------------|-----------------|----------------|-----------------*|
|-----------------|-----------------|----------------|-----------------*|
|-----------------|-----------------|----------------|-----------------*|



Duration Legend
---------------
W - whole; H - half; Q - quarter; E - 8th; S - 16th; T - 32nd; X - 64th; a - acciaccatura
+ - note tied to previous; . - note dotted; .. - note double dotted
Uncapitalized letters represent notes that are staccato (1/2 duration)
Irregular groupings are notated above the duration line
Duration letters will always appear directly above the note/fret number it represents the
duration for.  Duration letters with no fret number below them represent rests.  Multi-
bar rests are notated in the form Wxn, where n is the number of bars to rest for.  Low
melody durations appear below the staff

Tablature Legend
----------------
 h   - hammer-on
 p   - pull-off
 b   - bend
 pb  - pre-bend
 r   - bend release (if no number after the r, then release immediately)
 /\  - slide into or out of (from/to "nowhere")
 s   - legato slide
 S   - shift slide
 - natural harmonic
[n]  - artificial harmonic
n(n) - tapped harmonic
 ~   - vibrato
 tr  - trill
 T   - tap
 TP  - trem. picking
 PM  - palm muting
\n/  - tremolo bar dip; n = amount to dip
 \n  - tremolo bar down
 n/  - tremolo bar up
/n\  - tremolo bar inverted dip
 =   - hold bend; also acts as connecting device for hammers/pulls
 <> - volume swell (louder/softer)
 x   - on rhythm slash represents muted slash
 o   - on rhythm slash represents single note slash

Misc Legend
-----------
 |  - bar
||  - double bar
||o - repeat start
o|| - repeat end
*|  - double bar (ending)
 :  - bar (freetime)
 $  - Segno
 &  - Coda
Tempo markers -  = BPM(8/16=s8/s16), where s8 = swing 8ths, s16 = swing 16ths





Comments


Popular Panic At The Disco tabs & chords
That Green Gentlemen Bass Tabs
First Try Chords
New Perspective Chords
New Perspective 5 Chords
The Ballad Of Mona Lisa Chords
Camisado Tabs
Decay Dance Lullaby Tabs
Middle Of Summer 2 Tabs
Nine In The Afternoon 1 Tabs
Lying Is The Most Fun A Girl Can Have Without Taking Her Clothes Off Ukulele


Song lyrics



↑ Back to top | Tablatures and chords are parodies/interpretations of the original songs. You may use it for private study, scholarship, research or language learning purposes only
© 2014 AZChords.com Contact us | Privacy policy | DMCA | Add/correct tabs | Request tabs | Top 50 tabs