» » »

Panic At The Disco, Bittersweet Bass tabs (ver.1)

Artists:  A B C D E F G H I J K L M N O P Q R S T U V W X Y Z # 

Bittersweet Bass tabs (ver.1)

Panic At The Disco Tabs
 Rating:
4/5 (4 votes)
Bittersweet lessons Tabs too difficult? Try these video lessons and learn fast
                Intro (no bass)

Verse
G|-----|--------------------------------------------------|
D|-----|--------------------------------------------------|
A|-/5\-|-5-5-5-5-532--5-5-5-5578--------------------------|
E|-----|-------------------------7-7-7-7-754--7-7-7-77910-|

-----------------------------------------------|
-----------------------------------------------|
----------------246-5-5-5-5-532-5-5-5-5/121212-|
-3-3-3-33-6-6-6--------------------------------|

G|-------------------------------------------------|
D|-------------------------------------------------|
A|-5-5-5-5-532--5-5-5-5578-------------------------|
E|-------------------------7-7-7-7-754--7-7-7-7754-|

-------------------------------------------------------|
-------------------------------------------------------|
-----------------246-5-5-5-5-578-5\--7~-13~-12~-11~-9~-|
-3-3-3-33-56-6-6---------------------------------------|

Chorus
G|----------------------------------------------------------------|-------|
D|----------------------------------------------------------------|-------|
A|-555-5-78-222-2-53----------246-5555-5-78-222-2-53---------24---|-5\--5-|
E|-------------------333333366-----------------------33333335--3~-|-------|

Verse 2
G|---------------------------------------------------------------------------------|
D|---------------------------------------------------------------------------------|
A|-5-5-5-5-532--5-5-5-5578------------------------------------------246-5-----/10~-|
E|-------------------------7-7-7-7-754--7-7-7-7754--3-3-3-33-56-6-6----------------|

Chorus                                                           it`s 15
G|----------------------------------------------------------------------------|
D|----------------------------------------------------------------------------|
A|-555-5-78-222-2-53----------26-5555-5-78-222-2-53------------------------5~-|
E|-------------------333333366-----------------------3333333/15151515\--------|

Pause

Bridge
G|--------------------------------------|
D|--------------------------------------|
A|-22222222-77777777----------5555-4444-|
E|-------------------77777777-----------|

G|----242-----797----------------------------|
D|--24---42-79---97---575--------------------|
A|-2-------7--------57---75---------------5~-|
E|-----------------5-------555555555555555---|

Pause

Final Chorus                                                     it`s 15 & 17
G|------------------------------------------------------------------------------|
D|------------------------------------------------------------------------------|
A|-555-5-78-222-2-53----------246-5555-5-78-222-2-53----------------------------|
E|-------------------333333366-----------------------3333333/15151515/17171717\-|

G|-----------------------------------------------------------------------|
D|-----------------------------------------------------------------------|
A|-555-5-78-222-2-53----------246-5555-5-78-222-2-53------------2353575~~|
E|-------------------333333366-----------------------33333333-35---------|

please rate it!
            
Submit corrections

comments powered by Disqus
↑ Back to top | Panic At The Disco Bass for Bittersweet. Lyrics for acoustic guitar and electric guitar. Tablatures and chords are parodies/interpretations of the original songs. You may use it for private study, scholarship, research or language learning purposes only