» » »

Panda, Y De La Gasolina Renacio El Amor Bass tabs (ver.1)

Artists:  A B C D E F G H I J K L M N O P Q R S T U V W X Y Z # 

Y De La Gasolina Renacio El Amor Bass tabs (ver.1)

Panda Tabs
 Rating:
4/5 (4 votes)
Y De La Gasolina Renacio El Amor lessons Tabs too difficult? Try these video lessons and learn fast
1
                qe pedro aqi otra bes pro aora de panda
shida rola prendida i se escucha qonmadre en bemol
i ai les ba
Re# Sol# Do# Fa# (Bemol) Soena mil beses mejor en bemol qe en normal
Intro (Despues de lo de la guitarra acustica)
|------------------------------------------------------|
|------------------------------------------------------|
|----------------------------------5--5----------------|
|0-0-0--2-3-3-3-3-3-3-3--5-5-5-5-55-55-----------------|

Verso
|------------------------------------------------------|
|------------------------------------------------------|
|--------------------5-5-5-5-5-5-5-5-------------------|
|0-0-0--2-3--3-3-3-3-----------------------------------|

Coro (Ahi studes ben coantas bese se repite)
|------------------------------------------------------|
|------------------------------------------------------|
|-3*----5*--5h7-7-5-3----------------------------------|
|----3*------------------------------------------------|

Entre Vreso 2 i Coro
|--------------0-0-------------------------------------|
|----0----0---4-4-4------------------------------------|
|---2-2--2-2-5-----5-----------------------------------|
|-0-----3-----------0----------------------------------|
Esto originalmente lo ase la guitarra acustica pro si no tienen simplemente
lo pueden aser qon el bajo i suena igual.
Outro
|-------------------------------------------------------------|
|-------------------------------------------------------------|
|-3-3-3-3-------5-5-5-5-5-5-5-5--5~---------------------------|
|--------3-3-3-3----------------------------------------------|

Ahi sta mui facil rola

qeszo...°
            
Submit corrections

comments powered by Disqus
↑ Back to top | Panda Bass for Y De La Gasolina Renacio El Amor. Lyrics for acoustic guitar and electric guitar. 1 Tablatures and chords are parodies/interpretations of the original songs. You may use it for private study, scholarship, research or language learning purposes only