>
 >
Y De La Gasolina Renacio El Amor

Y De La Gasolina Renacio El Amor Guitar Tabs

Panda - Y De La Gasolina Renacio El Amor chords, tabs, tablatures, lyrics

Guitar lessons | Add/correct | Request | Top 50 tabs Artists:  A B C D E F G H I J K L M N O P Q R S T U V W X Y Z 0-9

Y De La Gasolina Renacio El Amor Guitar Tabs – Panda

CD, Sheet music, Poster

Do you like Y De La Gasolina Renacio El Amor? Share with your friends now
Bass TabsTabsTabs v2
----------------------------------------------------------------------
                             Y de La Gasolina Renació El Amor- Panda
----------------------------------------------------------------------






Intro En Guitarra Acustica:
                    (x4)
eb|-000--333--222222---|
Bb|-333--333--333333---|
Gb|-xxx--000--000000---| 
Db|-222--000--000000---|
Ab|-222--222--xxxxxx---|
Eb|-000--333--222222---|

Intro En Guitarra Electrica:

eb|---------------------------------------|
Bb|---------------------------------------|
Gb|---------------------------------------|
Db|-22-2----------------------------0---0-|
Ab|-22-2-2-2-2-2-22-2-33-3-3-3-3----------|
Eb|-00-0-2-3-3-3-33-3-55-5-5-5-5-0-2-0-2--|
PM: ..       .   ..   ..   .     . . . .

eb|-------------------------------------------------------|
Bb|-------------------------------------------------------|
Gb|----------------------------------------5b-5b-5b-5b-5b-|
Db|-22-2----------------------------0---0-----------------|
Ab|-22-2-2-2-2-2-22-2-33-3-3-3-3--------------------------|
Eb|-00-0-2-3-3-3-33-3-55-5-5-5-5-0-2-0-2------------------|
PM: ..       .   ..   ..   .     . . . .



Verso 1:
                                   (x4)
eb|-----------------------------------|
Bb|-----------------------------------|
Gb|-----------------------------------|
Db|-22-2----------------4--7--4--5--4-|
Ab|-22-2-2-2-2-2-22-2-55-55-55-55-55--|
Eb|-00-0-2-3-3-3-33-3-----------------|
PM: ..       .   ..   .. .. .. .. .

Pre-coro:  ( Clean )

eb|-0--3--3p2--0--3--3----2--|
Bb|-0--3—-3----0--3--3----3--|
Gb|-0--0—-2--2-0--0--0----2--|
Db|-2--0-----0-2--0-----0-0--|
Ab|-2--2-------2--2----------|
Eb|-0--3-------0--3----------|

Coro  :
                                 (x3)
eb|---------------------------------|
Bb|---------------------------------|
Gb|-55555--------777777-7/9-9-7-5---|
Db|-55555-55555--777777-7/9-9-7-5---| 
Ab|-33333-55555--555555-5/7-7-5-3---|
Eb|-------33333---------------------|

eb|------------------------------------|
Bb|------------------------------------|
Gb|-55555-------77777777-55555-------7-|
Db|-55555-55555-77777777-55555-55555-7-|
Ab|-33333-55555-55555555-33333-55555-5-|
Eb|-------33333----------------33333---|

Luego  :

eb|---------------------------------------|
Bb|---------------------------------------|
Gb|---------------------------------------|
Db|-22-2----------------------------0---0-|
Ab|-22-2-2-2-2-2-22-2-33-3-3-3-3----------|
Eb|-00-0-2-3-3-3-33-3-55-5-5-5-5-0-2-0-2--|
PM: ..       .   ..   ..   .     . . . .
Segundo Verso :
                                   (x4)
eb|-----------------------------------|
Bb|-----------------------------------|
Gb|-----------------------------------|
Db|-22-2----------------4--7--4--5--4-|
Ab|-22-2-2-2-2-2-22-2-55-55-55-55-55--|
Eb|-00-0-2-3-3-3-33-3-----------------|
PM: ..       .   ..   .. .. .. .. .

Pre-coro:   ( Clean )
                    (x4)
eb|--------------------|
Bb|--------------------|
Gb|------------0-0-0-0-|
Db|--0----0---4-4-4-4--|  
Ab|-2-2--2-2-5---------|
Eb|0----3--------------|

Segundo Coro :
                                 (x3)
eb|---------------------------------|
Bb|---------------------------------|
Gb|-55555--------777777-7/9-9-7-5---|
Db|-55555-55555--777777-7/9-9-7-5---| 
Ab|-33333-55555--555555-5/7-7-5-3---|
Eb|-------33333---------------------|

 En El Solo:                     
                      (x4)                                                           
eb|----------------------|
Bb|----------------------|
Gb|-55555-------77777777-|
Db|-55555-55555-77777777-|
Ab|-33333-55555-55555555-|
Eb|-------33333----------|

eb|---------------|
Bb|---------------|
Gb|-55555-------7-|
Db|-55555-55555-7-|
Ab|-33333-55555-5-|
Eb|-------33333---|

SOLO  :                              (x2)
eb|-------------------------------------|
Bb|-12-10-12----12-10-12-10~--13-12-10--|
Gb|---------12~-------------------------|
Db|-------------------------------------|
Ab|-------------------------------------|
Eb|-------------------------------------|

eb|---------------------------------------------------|
Bb|-12-10-12----12-10-12-10~--13-12-10--12-10-12------|
Gb|---------12~---------------------------------12~---|
Db|---------------------------------------------------|
Ab|---------------------------------------------------|
Eb|---------------------------------------------------|



| /  slide up
| \  slide down
| h  hammer-on
| p  pull-off
| ~  vibrato
| +  harmonic
| x  Mute note
======================================================================





Comments


Popular Panda tabs & chords
Miedo A Las Alturas Bass Tabs
Quisiera No Pensar Bass Tabs
Si Supieras Bass Tabs
3+1 Tabs
Amiguito Tabs
Fascinante 1 Tabs
Jeht Kacken Tabs
Los Malaventurados No Lloran 5 Tabs
Maracas Tabs
Frauen Und Manner Ukulele


Song lyrics



↑ Back to top | Tablatures and chords are parodies/interpretations of the original songs. You may use it for private study, scholarship, research or language learning purposes only
© 2014 AZChords.com Contact us | Privacy policy | DMCA | Add/correct tabs | Request tabs | Top 50 tabs