>
 >
Ya No Jalaba

Ya No Jalaba Guitar Tabs

Panda - Ya No Jalaba chords, tabs, tablatures, lyrics

Guitar lessons | Add/correct | Request | Top 50 tabs Artists:  A B C D E F G H I J K L M N O P Q R S T U V W X Y Z 0-9

Ya No Jalaba Guitar Tabs – Panda

CD, Sheet music, Poster

Do you like Ya No Jalaba? Share with your friends now
ChordsTabsTabs v2Tabs v3Ukulele
PANDA
YA NO JALABA



intro primera parte

e|-7-7-7-7--9-9-9-9--11-11-11-11--12-12-12-12--14-14-14-14--|
b|----------------------------------------------------------|
g|----------------------------------------------------------| 
d|----------------------------------------------------------|
a|----------------------------------------------------------|
d|----------------------------------------------------------|

 guitarra 1
e|-11-14-11------14--14-11-----14----|    |-------------------|                
b|----------12-14--12-----12-14--12--|    |-------------------|                
g|-----------------------------------| x4 |-11-8-------11-----|                
d|-----------------------------------|    |-----9-11-11---8/0-|      
a|-----------------------------------|    |-------------------|              
d|-----------------------------------|    |-------------------|              

 guitarra 2
e|--------------------------|
b|--------------------------|
g|--------------------------| 
d|--6666--444--222222222----|x4
a|--6666--444--222222222----|
d|--4444--222--000000000----|


verso: (despues del bajo) 
e|------------------------------------|
b|--------------7-------7-------------|
g|-8--6-------------------------------|x4 
d|-8--6--9----------9------9----------|
a|-6--4--9--------9---9---------------|
d|-------7----7-----------------------|

coro
e|-----|  |----------------------------------------------------------------------|
b|-----|  |----------------------------------------------------------------------|
g|-4---|  |--4-4-4-4-4-4-4-4-----------------------------------------------------| 
d|-4-4-|  |--4-4-4-4-4-4-4-4--6-6-6-6-6-6-6-6--2-2-2-2-2-2-2-2--4-4-4-4-4-4-4-4--|x2
a|-2-4-|  |--2-2-2-2-2-2-2-2--6-6-6-6-6-6-6-6--2-2-2-2-2-2-2-2--4-4-4-4-4-4-4-4--|
d|---2-|  |-------------------4-4-4-4-4-4-4-4--0-0-0-0-0-0-0-0--2-2-2-2-2-2-2-2--|

verso: (despues del bajo) 
e|---------------7-------7------------|
b|------------------------------------|
g|-8--6--4-----------9-----9----------| 
d|-8--6--4---------9---9--------------|
a|-6--4--2-----7----------------------|
d|------------------------------------|

coro
e|---------------------------------------------------------------------------|
b|---------------------------------------------------------------------------|
g|-4-----4-4-4-4-4-4-4-4-----------------------------------------------------| 
d|-4-4---4-4-4-4-4-4-4-4--6-6-6-6-6-6-6-6--2-2-2-2-2-2-2-2--4-4-4-4-4-4-4-4--|x4
a|-2-4---2-2-2-2-2-2-2-2--6-6-6-6-6-6-6-6--2-2-2-2-2-2-2-2--4-4-4-4-4-4-4-4--|
d|---2--------------------4-4-4-4-4-4-4-4--0-0-0-0-0-0-0-0--2-2-2-2-2-2-2-2--|
 terminando el coro va esto
e|------------------------------------|
b|------------------------------------|
g|------------------------------------| 
d|-2-4--4-4-4-4-4-4-4-4-4-4-4-4-4-4---|
a|-2-4--4-4-4-4-4-4-4-4-4-4-4-4-4-4---|
d|-0-2--2-2-2-2-2-2-2-2-2-2-2-2-2-2---|
pm.     . . . . . . . . . . . . . . 

 solo
e|-----11---------------12-11------------|
b|-12----14-12--12-14-12-----12-14-12-11-|
g|---------------------------------------| 
d|---------------------------------------|
a|---------------------------------------|
d|---------------------------------------|

e|----11---------------12-14-12-11-12-12-14-12-11-|
b|-12---14-12--12-14-12---------------------------|
g|------------------------------------------------|(la otra guitarra sigue con el coro)
d|------------------------------------------------|
a|------------------------------------------------|
d|------------------------------------------------|

en esta parte cambia 
e|-11-14-11------14--14-11-----14----|                    
b|----------12-14--12-----12-14--12--|                   
g|-----------------------------------|                 
d|-----------------------------------|          
a|-----------------------------------|                 
d|-----------------------------------|  

e|-11-14-11------14---17-14-----17-14|
b|----------12-14--12------15-17-----|
g|-----------------------------------| 
d|-----------------------------------|
a|-----------------------------------|
d|-----------------------------------|

e|-11-14-11-------14-----------------|
b|----------12-14----12-----14-------|
g|-----------------------------------| 
d|-----------------------------------|
a|-----------------------------------|
d|-----------------------------------|
guitarra 2 
e|---------------------|
b|---------------------|
g|---------------------| 
d|-6-6-6-6--4-4-4--2---|
a|-6-6-6-6--4-4-4--2---|
d|-4-4-4-4--2-2-2--0---|

termina con el coro
e|-----| |----------------------------------------------------------------------|
b|-----| |----------------------------------------------------------------------|
g|-----| |--4-4-4-4-4-4-4-4-----------------------------------------------------| 
d|-6-4-| |--4-4-4-4-4-4-4-4--6-6-6-6-6-6-6-6--2-2-2-2-2-2-2-2--4-4-4-4-4-4-4-4--|x4
a|-6-4-| |--2-2-2-2-2-2-2-2--6-6-6-6-6-6-6-6--2-2-2-2-2-2-2-2--4-4-4-4-4-4-4-4--|
d|-4-2-| |-------------------4-4-4-4-4-4-4-4--0-0-0-0-0-0-0-0--2-2-2-2-2-2-2-2--|

 guitarra 2
e|----11-------11-------11-------11----11-14-12-11-14-12-11-14-12-11-11-9-7---------------|
b|-12----14-12----14-12----14-12----14----------------------------------------------------|
g|----------------------------------------------------------------------------------------| 
d|----------------------------------------------------------------------------------------|
a|----------------------------------------------------------------------------------------|
d|----------------------------------------------------------------------------------------|

Eso es todo, una de las rolas mas chingonas de panda  
atte: gabriel flores. (the original punkater)





Comments


Popular Panda tabs & chords
Maracas 2 Bass Tabs
Frauen Und Manner Chords
Ando Pedo Y Ella Esta Aqui Tabs
Buen Dia Tabs
Cristina Tabs
Narcisista Por Excelencia 2 Tabs
So Violento So Macabro Tabs
Tanto Tabs
En El Vaticano Ukulele
Maracas Ukulele


Song lyrics



↑ Back to top | Tablatures and chords are parodies/interpretations of the original songs. You may use it for private study, scholarship, research or language learning purposes only
© 2014 AZChords.com Contact us | Privacy policy | DMCA | Add/correct tabs | Request tabs | Top 50 tabs