>
 >
Si Supieras

Si Supieras Guitar Tabs

Panda - Si Supieras chords, tabs, tablatures, lyrics

Guitar lessons | Add/correct | Request | Top 50 tabs Artists:  A B C D E F G H I J K L M N O P Q R S T U V W X Y Z 0-9

Si Supieras Guitar Tabs – Panda

CD, Sheet music, Poster

Do you like Si Supieras? Share with your friends now
Bass TabsTabsTabs v2
PANDA
si supieras

intro 
e|---8-----9-8---8---10-8--9-8---8-----|
b|-----9-------9---9-----9-----9-------|
g|-8-----8-----------------------------| x3
d|-------------------------------------|
a|-------------------------------------|
d|-------------------------------------|

 intro (guitarra 1)
e|------------------------------------|
b|------------------------------------| 
g|-2-2-2-4-2-2-2-4-6-6-6-4-6-7-7-6-4--| x2
d|------------------------------------|   
a|------------------------------------|
d|------------------------------------|

 intro (guitarra 2)
e|-4/5-5-5-5-7-5-5-5-5-7-7/9-9-9-7-9-9/10-10-9-9-7-----|
b|-----------------------------------------------------|
g|-----------------------------------------------------| x2  
d|-----------------------------------------------------|
a|-----------------------------------------------------|
d|-----------------------------------------------------|

verso (ritmo ska)
e|-5-5-5-5-5-5-5-7-7-7-7-7-7-7-7-10-10-10-10-10-10-10-10-12-12-12-12-12-12-12-12-|
b|-5-5-5-5-5-5-5-7-7-7-7-7-7-7-7-10-10-10-10-10-10-10-10-12-12-12-12-12-12-12-12-|
g|-------------------------------------------------------------------------------| x2
d|-------------------------------------------------------------------------------|
a|-------------------------------------------------------------------------------|
d|-------------------------------------------------------------------------------|

 guitarra 2
e|---------------------------------------------------------------------------------------------------------------|   
b|---------------------------------------------------------------------------------------------------------------|
g|---------------------------------------------------------------------------------------------------------------|x2 
d|--------------------------------------------------------7-7-7--7-7-7--7-7-7--7-7-7--9-9-9--9-9-9--9-9-9--9-9-9-|
a|-7-7-7--7-7-7--7-7-7--7-7-7--9-9-9--9-9-9--9-9-9--9-9-9-5-5-5--5-5-5--5-5-5--5-5-5--7-7-7--7-7-7--7-7-7--7-7-7-|
d|-5-5-5--5-5-5--5-5-5--5-5-5--7-7-7--7-7-7--7-7-7--7-7-7--------------------------------------------------------|

 coro x4  (primero son 2 vueltas con 3 rasgueos luego 2 con 4)
e|---------------------------------|
b|---------------------------------|
g|-------------4-4-4-7-7-7---------|
d|-7-7-7-2-2-2-4-4-4-7-7-7---------|
a|-7-7-7-2-2-2-2-2-2-5-5-5---------|
d|-5-5-5-0-0-0---------------------|

 verso (guitarra 1 y 2)
e|-5-5-5-5-5-5-5-7-7-7-7-7-7-7-7-----------------------------------|
b|-5-5-5-5-5-5-5-7-7-7-7-7-7-7-7-----------------------------------|
g|-------------------------------7-7-7-7-7-7-7-7--9-9-9-9-9-9-9-9--| x2 
d|-------------------------------7-7-7-7-7-7-7-7--9-9-9-9-9-9-9-9--|
a|-------------------------------5-5-5-5-5-5-5-5--7-7-7-7-7-7-7-7--|
d|-----------------------------------------------------------------|
ska. . . . . . . . . . . . . . . 

verso (guitarra 2)
coro

interlude (guitarra 1 y la guitarra 2 sigue tocando el coro)
e|-4-5-0-5-4-5-0-5-4-5-0-7-7/9-7-5-4-|
b|-----------------------------------|
g|-----------------------------------| x4
d|-----------------------------------|
a|-----------------------------------|
d|-----------------------------------|

y siempre he sido o...siempre he sido aburrido
e|---------------------|
b|---------------------|
g|--------------4/9/4--|
d|-7-7/0--9-9/0-4/9/4--|
a|-7-7/0--9-9/0-2/7/2--|
d|-5-5/0--7-7/0--------|

coro
y termina con el interlude

esta rola esta dedicada para todos los punketos de acapulco fans de panda.

attte: gabriel flores (the original punkater





Comments


Popular Panda tabs & chords
Hasta El Final Acustica Chords
Nuestra Afliccion 1 Chords
A Pero Como Vendo Casettes Tabs
Atractivo Encontramos En Lo Mas Repugnante Tabs
Buen Dia Tabs
Figura Decorativa Sobre Fondo Ornamental Tabs
Nuestra Afliccion 1 Tabs
Porque Todavia Podemos Decir Una Vez Mas Tabs
Solo A Terceros 3 Tabs
Soy Un Ganador Tabs


Song lyrics



↑ Back to top | Tablatures and chords are parodies/interpretations of the original songs. You may use it for private study, scholarship, research or language learning purposes only
© 2014 AZChords.com Contact us | Privacy policy | DMCA | Add/correct tabs | Request tabs | Top 50 tabs