» » »

Panda, Narcisista Por Excelencia Tabs

Artists:  A B C D E F G H I J K L M N O P Q R S T U V W X Y Z # 

Narcisista Por Excelencia Tabs

(ver. 1)
Panda Tabs
 Rating:
4/5 (4 votes)
    Narcisista Por Excelencia lessons Tabs too difficult? Try these video lessons and learn fast

WWW.AZCHORDS.COM | Panda Tabs - Narcisista Por Excelencia Tabs (ver. 1)


                bueno pues ai les van
las siguientes partes de la camcion
ya les puse el intro y pues ai va lo otro


estas son las partes donde empieza cantando
''sabes que es la inseguridad''....

Verso
e|---------------------------|
b|---------------------------|
g|--------7-88-----7---------|        x2
d|-55-----7-88-----7---------|
A|-55-----5-66-----5---------|
E|-33------------------------|


e|------------------|
b|------------------|
g|--3-/-10-\-0------|
d|--x---xx---x------|
A|--|-/-8--\-0------|
E|------------------|


Verso 2
e|----------------------------|
b|----------------------------|
g|------------8-8-8-/7\-------|
d|-5-5-5-/3---x-x-x-/x\-(x4)--|
A|-5-5-5-/3---6-6-6-/5\-------|
E|-3-3-3-/1-(x4)--------------|


Pre-verso

e|----------------------------------------------------------------|
b|----------------------------------------------------------------|    en esta parte en la ultima vuelta
g|--5-55-5/7/888/1010\33-333----    nomas se toca hasta el 8--10--|
d|--x-xx-x/x/xxx/xxxx\xx-xxx-55-----------------------------------|
A|--3-33-3/5/666/8-8-\11-111-55-----------------------------------|
E|---------------------------33-----------------------------------|


Coro

e|--------------------------------------|
b|--------------------------------------|
g|---------888-8888-----------10-101010-|
d|-55-5555-888-8888-888-8888--10-101010-|
A|-55-5555-666-6666-888-8888---8--8-8-8-|
E|-33-3333----------666-6666------------|

Y luego cuando empieza a cantar
.disfraz dizfrz...
cambia

e|----------------------------------------|
b|----------------------------------------|
g|----------------------------------------|
d|--88-888------------1010-101010---------|
g|--88-888-8-88-88888-1010-101010-55-5555-|
A|--66-666-8-88-88888--8-8--8-8-8-55-5555-|
E|---------6-66-66666-------------33-3333-|

en estaq parte pues ya le vuelben a dar el intro
pero normal, no como en el inicio, y despues dan
este verso


e|-------------------------------6-------6-8-9^---|
b|--------------------------8 10---10-6-----------|
g|---8-8-7-8------7-8-8-7-8-----------------------|
d|-------------000x3------------------------------|
A|------------------------------------------------|
E|------------------------------------------------|

y ya despues de eso, le dan el coro,, y ahora va la parte del
piano, el piano no me lo se... pero pues denle asi leveson

e|--6~~---3~~--6~~--1~~-|
b|----------------------|
g|----------------------|
d|----------------------|
A|----------------------|
E|----------------------|

aqui en estas partes ps asi le dan rasgeando la cuerda
lo mas rapido que puedan

e|--66666666666-3333333333-66666666666-111111111111111111111111-|
b|--------------------------------------------------------------|
g|--------------------------------------------------------------|
d|--------------------------------------------------------------|
A|--------------------------------------------------------------|
E|--------------------------------------------------------------|

e|--66666666-333333333-6666666---12121212121212------|
b|---------------------------------------------------|
g|---------------------------------------------------|
d|---------------------------------------------------|
A|---------------------------------------------------|
E|---------------------------------------------------|


e|-----------------------------------------------------------------|
b|---11-10-------------11-10---------11-10-------------------------|
g|---------12-10-12-7~-------12-10-7~------12-10-7~-8-10-8---7-8-7-|
d|-----------------------------------------------------------------|
A|-----------------------------------------------------------------|
E|-----------------------------------------------------------------|


e|----------------11-10-----------------------11-10-11-13-11-10-|
b|---11-10--------------11~----11-10----------------------------|
g|--------12-10-12-------------------12-10-12-------------------|
d|--------------------------------------------------------------|
A|--------------------------------------------------------------|
E|--------------------------------------------------------------|


el final del solo, no se define bien, pero es con el pedal en modo
WAH y creo que es asi:

e|---------------------------------------------------------|
b|--11-10-8------------------------------------------------|
g|----------12-11-9----------------------------------------|
d|------------------13-12-10-------------------------------|
A|---------------------------14-13-11----------------------|
E|---------------------------------------------------------|


y ya pues eso, le dan todo el solo y el coro con la guitarra 2
            
Submit corrections

↑ Back to top | Panda Tabs for Narcisista Por Excelencia. Lyrics for acoustic guitar and electric guitar. Tablatures and chords are parodies/interpretations of the original songs. You may use it for private study, scholarship, research or language learning purposes only