» » »

Panda, Muã±eca Tabs (ver.3)

Artists:  A B C D E F G H I J K L M N O P Q R S T U V W X Y Z # 

Muã±eca Tabs (ver.3)

Panda Tabs
 Rating:
4/5 (4 votes)
Muã±eca lessons Tabs too difficult? Try these video lessons and learn fast
1
                Panda - Muñeca

esta version es muy parecida a las demas pero es mucho mas facil de tocar, y para mi 
esta mejor explicada, asi que espero que este bien para ustedes.

intro 1: 
e|------------------------------------|
b|-----3-------3-5-6-5-3--------------|
g|-5-------5-------------5---5h7-5-4--| x2 
d|---5---5---5------------------------|
a|-3---------------0------------------|
d|---------3---------------3----------|


intro 2:
guitarra 1
e|------------------------------------|        
b|------------------------------------|       
g|-5-5-5-5----------------------------| x4   
d|-5-5-5-5--5-5-5-5--7-7-7-7--3-3-3-3-|         
a|-3-3-3-3--5-5-5-5--7-7-7-7--3-3-3-3-|       
d|----------3-3-3-3--5-5-5-5--1-1-1-1-|        

guitarra 2
e|----------------------------------|        
b|---3---3-5-6-5-3---3--------------|          
g|-5---5-----------5---5-4----------|             
d|----------------------------------|          
a|----------------------------------|             
d|----------------------------------| 

   
verso:
guitarra 1
e|-------------------------------------|        
b|-------------------------------------|       
g|-5-5-5-5-----------------------------|x 2  
d|-5-5-5-5--5-5-5-5--7-7-7-7--3-3-3-3--|      
a|-3-3-3-3--5-5-5-5--7-7-7-7--3-3-3-3--|      
d|----------3-3-3-3--5-5-5-5--1-1-1-1--|     

guitarra 2
e|-------------------------------------|       
b|-------------------------------------|       
g|-5-5-5-5-----------------------------| x2  
d|-5-5-5-5--5-5-5-5--7-7-7-7--5-5-5-5--|        
a|-3-3-3-3--5-5-5-5--7-7-7-7--5-5-5-5--|        
d|----------3-3-3-3--5-5-5-5--3-3-3-3--|


coro 1:
guitarra 1
e|-------------------------------------|        
b|-------------------------------------|       
g|-5-5-5-5-----------------------------|x4   
d|-5-5-5-5--5-5-5-5--7-7-7-7--3-3-3-3--|      
a|-3-3-3-3--5-5-5-5--7-7-7-7--3-3-3-3--|      
d|----------3-3-3-3--5-5-5-5--1-1-1-1--|     

guitarra 2
e|-------------------------------------|       
b|-------------------------------------|       
g|-5-5-5-5-----------------------------|x4 
d|-5-5-5-5--5-5-5-5--7-7-7-7--5-5-5-5--|        
a|-3-3-3-3--5-5-5-5--7-7-7-7--5-5-5-5--|        
d|----------3-3-3-3--5-5-5-5--3-3-3-3--|


coro 2:
guitarra 1
e|-------------------------------------|        
b|-------------------------------------|       
g|-7-7-7-7-----------------------------|x4   
d|-7-7-7-7--7-7-7-7--9-9-9-9--5-5-5-5--|      
a|-5-5-5-5--7-7-7-7--9-9-9-9--5-5-5-5--|      
d|----------5-5-5-5--7-7-7-7--3-3-3-3--| 

guitarra 2
e|-------------------------------------|        
b|-------------------------------------|       
g|-7-7-7-7-----------------------------|x4   
d|-7-7-7-7--7-7-7-7--9-9-9-9--7-7-7-7--|      
a|-5-5-5-5--7-7-7-7--9-9-9-9--7-7-7-7--|      
d|----------5-5-5-5--7-7-7-7--5-5-5-5--|  


solo, mientras la otra guitarra toca el coro 2 (guitarra 2):
e|-----------------------------------------5/7-7--5---------------------|
b|-5/7-10-5-7-5-3-3-3/8-7--5/7-10-5-7-5-3-----------8----7-10-5-7-5-3---|
g|----------------------------------------------------------------------| 
d|----------------------------------------------------------------------|
a|----------------------------------------------------------------------|
d|----------------------------------------------------------------------|

e|5/7--7/10-10----9-10----9-10----9-10-----10/12-12-12-12/10--|
b|-------------8-7-----8-7-----8-7-----8-7--------------------|
g|------------------------------------------------------------| 
d|------------------------------------------------------------|
a|------------------------------------------------------------|
d|------------------------------------------------------------|


final, mientras la otra guitarra toca el coro 2 (guitarra 2):
e|-9/11/9-----------|         
b|-----------11/9/8-|          
g|------------------|             
d|------------------|        
a|------------------|             
d|------------------|  


orden:
intro 1
intro 2
verso
coro
intro 2
verso
coro 2
solo
coro 2
final

Eso es todo, espero que este bien y que ¡¡¡viva el punk mexicano!!!
            
Submit corrections

comments powered by Disqus
↑ Back to top | Panda Tabs for Muã±eca. Lyrics for acoustic guitar and electric guitar. 1 Tablatures and chords are parodies/interpretations of the original songs. You may use it for private study, scholarship, research or language learning purposes only