>
 >
Cuando No Es Como Deberia Ser

Cuando No Es Como Deberia Ser Guitar Tabs

Panda - Cuando No Es Como Deberia Ser chords, tabs, tablatures, lyrics

Guitar lessons | Add/correct | Request | Top 50 tabs Artists:  A B C D E F G H I J K L M N O P Q R S T U V W X Y Z 0-9

Cuando No Es Como Deberia Ser Guitar Tabs – Panda

CD, Sheet music, Poster

Do you like Cuando No Es Como Deberia Ser? Share with your friends now
ChordsChords v2TabsTabs v2Tabs v3Tabs v4UkuleleUkulele v2
Banda: Panda
Canción: Cuando No es Como Debería Ser
Tab por: Joriel Vásquez
Fecha: 14-04-06

Tuning: eb-Bb-Gb-Db-Ab-Db

Ésta es una canción bastante buena, fácil de tocar pero con buco feelin'.

Intro:
eb|----|----|
Bb|----|----|
Gb|----|-9~-|
Db|-7~-|-7~-|
Ab|-7~-|-7~-|
Db|-7~-|-7~-|

Guitarra 1:
eb|----------------|-----------------|----------------|--------------------|
Bb|-------8------8-|-----------------|-------8------8-|--------------------|
Gb|-4--5-----4-5---|9/10-9--7--5---4-|4--5-----4-5----|9/10-9--7--5---4-5~-|
Db|----------------|-----------------|----------------|--------------------|
Ab|----------------|-----------------|----------------|--------------------|
Db|----------------|-----------------|----------------|--------------------|
         (3x)                               (3x)

Guitarra 2:
eb|----------------------------------------------------------|
Bb|----------------------------------------------------------|
Gb|-------------------------------------------------------9~-|
Db|-7------3------5----10--9---7------3------5----10--9---7~-|
Ab|-7------3------5----10--9---7------3------5----10--9---7~-|
Db|-7------3------5----10--9---7------3------5----10--9---7~-|


Verso:

[BAJO & BATERÍA]

eb|------------------|-------------------------------|
Bb|-10-10-10-8--10-8-|-10-10-10-8--10-8-13---12---10-|
Gb|--9--9--9-7---9-7-|--9--9--9-7---9-7-12---12---12-|
Db|------------------|-------------------------------|(2x)
Ab|------------------|-------------------------------|
Db|------------------|-------------------------------|
          (2x)

Coro:
Guitarra 1:
eb|---------15--------15-|15/17-15-13--15/17-15-13-|--------15--------15-|
Bb|-12--13------12-13----|-------------------------|12--13------12-13----|
Gb|----------------------|-------------------------|---------------------|
Db|----------------------|-------------------------|---------------------|
Ab|----------------------|-------------------------|---------------------|
Db|----------------------|-------------------------|---------------------|
            (3x)                                             (3x)

eb|15/17-15--13--12--13-|12~-|
Bb|---------------------|----|
Gb|---------------------|----|
Db|---------------------|----| (2x)
Ab|---------------------|----|
Db|---------------------|----| 

Guitarra 2:
eb|------------------------------------------------------------------------|
Bb|------------------------------------------------------------------------|
Gb|------------------------------------------------------------------------|
Db|-7----3----5---9h10-9----9h10-9----7----3----5--------------------------|
Ab|-7----3----5----------10--------10-7----3----5--------10------10------10|
Db|-7----3----5-----------------------7----3----5---9-10----9-10----9-10---|
                                                    .  .    .  .    .  .

eb|---------|
Bb|---------|
Gb|---------|
Db|---------| (2x)
Ab|------10-|
Db|-9-10----| 
    .  .  

Verso

Coro

Puente:
eb|-----------------------------------------------------------------|
Bb|-----------------------------------------------------------------|
Gb|-----------------------------------------------------------------|
Db|-3-3-3-3-3-3-3-3-2-2-2-2-2-2-2-2-3-3-3-3-3-3-3-3-5-5-5-5-5-5-5-5-| (4x)
Ab|-3-3-3-3-3-3-3-3-2-2-2-2-2-2-2-2-3-3-3-3-3-3-3-3-5-5-5-5-5-5-5-5-|
Db|-3-3-3-3-3-3-3-3-2-2-2-2-2-2-2-2-3-3-3-3-3-3-3-3-5-5-5-5-5-5-5-5-|
      . .   . .   .   . .   . .   .   . .   . .   .   . .   . .   .

Guitarra 1:
eb|----------------------------------------------------------------------|
Bb|----------------------------------------------------------------------|
Gb|----------------------------------------------------------------------|
Db|-7--7--7--7--7--7--7--7-7-3--3--3--3--3--3--3--3-3-5--5--5--5--5--5--5|
Ab|-7--7--7--7--7--7--7--7-7-3--3--3--3--3--3--3--3-3-5--5--5--5--5--5--5|
Db|-7--7--7--7--7--7--7--7-7-3--3--3--3--3--3--3--3-3-5--5--5--5--5--5--5|
    .  .  .  .  .  .  .  . . .  .  .  .  .  .  .  . . .  .  .  .  .  .  .

eb|-----------------------------------------|
Bb|-----------------------------------------|
Gb|-----------------------------------------|
Db|--5-5-10--10--10--10--10-10-9--9--9--9-9-| (2x)
Ab|--5-5-10--10--10--10--10-10-9--9--9--9-9-|
Db|--5-5-10--10--10--10--10-10-9--9--9--9-9-|
     . .  .   .   .   .   .  . .  .  .  . .

Guitarra 2:
eb|-------------------------------|
Bb|-------------------------------|
Gb|-------------------------------|
Db|-------------------------------|
Ab|-------------------------------|
Db|------7/////////////18\\\\\\\\-|


Outro:
Guitarra 1:
eb|---------15--------15-|15/17-15-13--15/17-15-13-|--------15--------15-|
Bb|-12--13------12-13----|-------------------------|12--13------12-13----|
Gb|----------------------|-------------------------|---------------------|
Db|----------------------|-------------------------|---------------------|
Ab|----------------------|-------------------------|---------------------|
Db|----------------------|-------------------------|---------------------|
            (3x)                                             (3x)

eb|15/17-15--13--12--13-|12~-|
Bb|---------------------|----|
Gb|---------------------|----|
Db|---------------------|----| (4x)
Ab|---------------------|----|
Db|---------------------|----| 

Guitarra 2:
eb|------------------------------------------------------------------------|
Bb|------------------------------------------------------------------------|
Gb|------------------------------------------------------------------------|
Db|-7----3----5---9h10-9----9h10-9----7----3----5--------------------------|
Ab|-7----3----5----------10--------10-7----3----5--------10------10------10|
Db|-7----3----5-----------------------7----3----5---9-10----9-10----9-10---|
                                                    .  .    .  .    .  .

eb|---------|
Bb|---------|
Gb|---------|
Db|---------| 
Ab|------10-|
Db|-9-10----| 
    .  .  



Guitarra 2 II Parte:
eb|--------------------------------------------|
Bb|--------------------------------------------|
Gb|--------------------------------------------|
Db|-7---7--7-7--3-3-3-3--3/5-5-5-5--5/10-10--9-|
Ab|-7---7--7-7--3-3-3-3--3/5-5-5-5--5/10-10--9-|
Db|-7---7--7-7--3-3-3-3--3/5-5-5-5--5/10-10--9-|
                  . .          .


eb|----------------------------------------------------------|
Bb|----------------------------------------------------------|
Gb|-------------------------------------------------------9~-|
Db|-7---7--7-7--3-3-3-3--3/5-5-5-5--5/10-10-10-10-10-9-9--7~-|
Ab|-7---7--7-7--3-3-3-3--3/5-5-5-5--5/10-10-10-10-10-9-9--7~-|
Db|-7---7--7-7--3-3-3-3--3/5-5-5-5--5/10-10-10-10-10-9-9--7~-|
                  . .          .   

                           *FIN*

Leyenda:
(~): Deja vibrar las cuerdas... 
(.): Palm Mute
(h): Hammer On
(/): Slide Up
(\): Slide Down
(x): Cantidad de repeticiones

Bueno eso es todo, espero les guste, si quieren contactarme háganlo a:

Nos vemos...        





Comments


Popular Panda tabs & chords
Color Negro Pasion Bass Tabs
Mala Suerte Bass Tabs
Procedimientos Para Llegar A Un Comun Acuerdo Bass Tabs
Cita En El Quirofano 1 Chords
A Pero Como Vendo Casettes Tabs
Ando Pedo Y Ella Esta Aki Tabs
Muceca 1 Tabs
Cuando No Es Como Deberia Ser 2 Ukulele
El Cuello Perfecto Ukulele
Lascivamente Ukulele


Song lyrics



↑ Back to top | Tablatures and chords are parodies/interpretations of the original songs. You may use it for private study, scholarship, research or language learning purposes only
© 2014 AZChords.com Contact us | Privacy policy | DMCA | Add/correct tabs | Request tabs | Top 50 tabs