» » »

Paloma Faith, Stone Cold Sober Tabs (ver.1)

Artists:  A B C D E F G H I J K L M N O P Q R S T U V W X Y Z # 

Stone Cold Sober Tabs (ver.1)

Paloma Faith Tabs
 Rating:
4/5 (7 votes)
Stone Cold Sober lessons Tabs too difficult? Try these video lessons and learn fast
1
                ----------------------------------------------------------------------------
----------------------------------------------------------------------------

Tuning: Standard


----------------------------------------------------------------------------

Intro:
(I have marked a (v) where you play the riff)


e|--------------------| X6
B|--------------------|
G|--7p-6--4-----------|
D|-----------5p-4--2--|
A|--------------------|
E|--------------------|

                                             (v)                       
I'll be the late night lady you won't recognize
                                    (v)
I'm a chameleon I'm always in disguise
                                               (v)
I'd read your future but it's written in the past
                                 (v)
Take a good look might be your last


----------------------------------------------------------------------------

Verse:

    E   G  A  B
e|--12--3--5--7--| 
B|--12--3--5--7--|
G|--11--4--6--8--|
D|--13--5--7--9--|
A|--13--5--7--9--|
E|--12--5--5--7--|

E                          G                         A
_________Don't try to show me, 'cause you don't know me
      B
Stay away


----------------------------------------------------------------------------

Chorus:
(on the second play only play the B chord once)

    E  E         A  A         G  G         B  B
e|--0--0--x-x-x--5--5--x-x-x--3--3--x-x-x--7--7--| X2
B|--0--0--x-x-x--5--5--x-x-x--3--3--x-x-x--7--7--|
G|--1--1--x-x-x--6--6--x-x-x--4--4--x-x-x--8--8--|
D|--2--2--x-x-x--7--7--x-x-x--5--5--x-x-x--9--9--|
A|--2--2--x-x-x--7--7--x-x-x--5--5--x-x-x--9--9--|
E|--0--0--x-x-x--5--5--x-x-x--3--3--x-x-x--7--7--|



E                   A              G
_________I can be wilder than the wind
               B               E
hundred and nineteen miles an hour
A                       G
I'm in a whole other dimension
          B              E
Dancing doubles on the floor
               A                   G
You think I'm crazy, a little bit hazy
          B
But I'm stone cold sober



----------------------------------------------------------------------------

Verse:
(I have marked a (v) where you play the riff)

e|--------------------| X3
B|--------------------|
G|--7p-6--4-----------|
D|-----------5p-4--2--|
A|--------------------|
E|--------------------|

                       
You're telling me something
                                (v)
But there's nothing cheap as words
                                           (v)
I'm walking away before I do affect the birds
                                      (v)
Excuse me Mr I've got other things to do


e|--------------------| 
B|--------------------|
G|--7p-6--4-----------|
D|-----------5p-4--9--|
A|--------------------|
E|--------------------|

                                 (v)
Than to stand here listening to you


----------------------------------------------------------------------------

Verse:

    E   G  A  B
e|--12--3--5--7--| 
B|--12--3--5--7--|
G|--11--4--6--8--|
D|--13--5--7--9--|
A|--13--5--7--9--|
E|--12--5--5--7--|

E                            G                          A
_________Stop talking at my face, take a rocket out to space and 

      B
Stay away


----------------------------------------------------------------------------

Chorus:
(on the second play each time only play the B chord once)
(This particular time the lyrics repeat for one whole time)

    E  E         A  A         G  G         B  B
e|--0--0--x-x-x--5--5--x-x-x--3--3--x-x-x--7--7--| 
B|--0--0--x-x-x--5--5--x-x-x--3--3--x-x-x--7--7--|
G|--1--1--x-x-x--6--6--x-x-x--4--4--x-x-x--8--8--|
D|--2--2--x-x-x--7--7--x-x-x--5--5--x-x-x--9--9--|
A|--2--2--x-x-x--7--7--x-x-x--5--5--x-x-x--9--9--|
E|--0--0--x-x-x--5--5--x-x-x--3--3--x-x-x--7--7--|



E                   A              G
_________I can be wilder than the wind
               B               E
hundred and nineteen miles an hour
A                        G
I'm in a whole other dimension
          B              E
Dancing doubles on the floor
               A                   G
You think I'm crazy, a little bit hazy
          B
But I'm stone cold sober



----------------------------------------------------------------------------

Verse:

    E   G  A  B
e|--12--3--5--7--| 
B|--12--3--5--7--|
G|--11--4--6--8--|
D|--13--5--7--9--|
A|--13--5--7--9--|
E|--12--5--5--7--|

E                            G                          A
_________Stop talking at my face, take a rocket out to space and 

      B
Stay away


----------------------------------------------------------------------------

Chorus:
(on the second play each time only play the B chord once)
(This particular time the lyrics repeat for one whole time)

    E  E         A  A         G  G         B  B
e|--0--0--x-x-x--5--5--x-x-x--3--3--x-x-x--7--7--| 
B|--0--0--x-x-x--5--5--x-x-x--3--3--x-x-x--7--7--|
G|--1--1--x-x-x--6--6--x-x-x--4--4--x-x-x--8--8--|
D|--2--2--x-x-x--7--7--x-x-x--5--5--x-x-x--9--9--|
A|--2--2--x-x-x--7--7--x-x-x--5--5--x-x-x--9--9--|
E|--0--0--x-x-x--5--5--x-x-x--3--3--x-x-x--7--7--|



E                   A              G
_________I can be wilder than the wind
               B               E
hundred and nineteen miles an hour
A                        G
I'm in a whole other dimension
          B              E
Dancing doubles on the floor
               A                   G
You think I'm crazy, a little bit hazy
          B
But I'm stone cold sober



----------------------------------------------------------------------------


Please rate
thanks
            
Submit corrections

comments powered by Disqus
↑ Back to top | Paloma Faith Tabs for Stone Cold Sober. Lyrics for acoustic guitar and electric guitar. 1 Tablatures and chords are parodies/interpretations of the original songs. You may use it for private study, scholarship, research or language learning purposes only