» » »

Do You Want The Truth Or Something Beautiful Bass tabs (ver.1)

Artists:  A B C D E F G H I J K L M N O P Q R S T U V W X Y Z # 

Do You Want The Truth Or Something Beautiful Bass tabs (ver.1)

Paloma Faith
Rating:
0/5 (0 votes)

Hard to play? Try these video lessons and learn fast.
                Bass Tab as promised. 
This is my version, Andrea Goldsworthy is a better player than I am,
and adds a lot of little bits as well as dropping the odd note in the repeats 
but did you want the truth or something playable?

Verse

G|---------------------------------------------------------------------------|
D|-----------5--5-3-------------3-5-7---9-7-5--5-3---------------------------|
A|---3-5--5-3------5------3-5--5------------------5------3-5-----REPEAT------|
E|3-5-----------------3-5-----------------------------3-5--------------------|

Chorus

G|---------------------------------------------------------------------------|
D|---------------------------------------------------------------------------|
A|--5-(7)-8-8--5-88-5-8-8--5-88--8-(7)-5-5--0-55--0-3-5-0-55----REPEAT-------|
E|---------------------------------------------------------------------------|

Sacred Lies and telling tales bit

G|---------------------------------------------------------------------------|
D|---------------------------------------------------------------------------|
A|--5-5-4-55--54-4-3-44-3-3-2-33-3-2-2-2h3-22-1-1-0-11-0-----22-33---REPEAT--|
E|------------------------------------------------------33-55----------------|
            
Hard to play? Try these video lessons and learn fast. | Correct




comments powered by Disqus
↑ Back to top | Tablatures and chords are parodies/interpretations of the original songs. You may use it for private study, scholarship, research or language learning purposes only