» » »

Shut Your Mouth Tabs (ver.3)

Artists:  A B C D E F G H I J K L M N O P Q R S T U V W X Y Z # 

Shut Your Mouth Tabs (ver.3)

Pain
Rating:
0/5 (0 votes)

Hard to play? Try these video lessons and learn fast.
                E||------------------------|-------------------------|------------------------|-------------------------|
B||------------------------|-------------------------|------------------------|-------------------------|
G||------------------------|-------------------------|------------------------|-------------------------|
D||-------4-----5----4--2--|--4----2--4--5--5--4--2--|-------4-----5----4--2--|--0----2--0--------------|
A||--2-------2-------------|-------------------------|--2-------2-------------|-------------4--4--5--4--
E||------------------------|-------------------------|------------------------|-------------------------|
                                                                

|---------------------------|--------------------------|
|---------------5--5--5--5--|--------------8--8--8--8--|
|*--4--4--4--4--4--4--4--4--|--7--7--7--7--7--7--7--7--|
|*--4--4--4--4--2--2--2--2--|--7--7--7--7--5--5--5--5--|
|---2--2--2--2--------------|--5--5--5--5--------------|
|---------------------------|--------------------------|


                                                      
--------------------------|--------------------------|
--------------5--5--5--5--|--------------------------|
--4--4--4--4--4--4--4--4--|--------------------------|
--4--4--4--4--2--2--2--2--|--5--5--5--5--8--8--8--8--|
--2--2--2--2--------------|--------------------------|
--------------------------|--------------------------|
            
Hard to play? Try these video lessons and learn fast. | Correct




comments powered by Disqus
↑ Back to top | Tablatures and chords are parodies/interpretations of the original songs. You may use it for private study, scholarship, research or language learning purposes only