» » »

Happy Song Tabs (ver.2)

Artists:  A B C D E F G H I J K L M N O P Q R S T U V W X Y Z # 

Happy Song Tabs (ver.2)

Pagoda
Rating:
0/5 (0 votes)

Hard to play? Try these video lessons and learn fast.
                (Intro)
Pagoda - The Happy Song

Legend:
pm- palm mute


e-----------------------------------------------------------------|
b-----------------------------------------------------------------|
g-----2-------2-------3-------3--------2-------2------------------|
d---2-------2-------3-------3--------2-------2------3-3-3-3-3--2--| x3
a-0-------0-----0-1-------1------1-0-------0------0-3-3-3-3-3--2--|
E---------------------------------------------------1-1-1-1-1--0--|

pm.............................................................. 

e-----------------------------------------------------------------|
b-----------------------------------------------------------------|
g-----2-------2-------3-------3--------2-------2------------------|
d---2-------2-------3-------3--------2-------2------3-3-3-3-3--2--| x2
a-0-------0-----0-1-------1------1-0-------0------0-3-3-3-3-3--2--|
E---------------------------------------------------1-1-1-1-1--0--|
    I    was    born    in    this    junkyard... etc. 

e------------------------------|
b------------------------------|
g-2--2-2--2-2-2----------------|
d-2--2-2--2-2-2--3-3-3-3-3--2--| x2
a-0--0-0--0-0-0--3-3-3-3-3--2--|
E----------------1-1-1-1-1--0--|

   (Scream...)


thats all i've figured out so far...    rate it... plz...
            
Hard to play? Try these video lessons and learn fast. | Correct




comments powered by Disqus
↑ Back to top | Tablatures and chords are parodies/interpretations of the original songs. You may use it for private study, scholarship, research or language learning purposes only