» » »

Death To Birth Tabs (ver.1)

Artists:  A B C D E F G H I J K L M N O P Q R S T U V W X Y Z # 

Death To Birth Tabs (ver.1)

Pagoda
Rating:
5/5 (2 votes)

Tabs too difficult? Try these video lessons and learn fast.
                "Death to Birth" - Pagoda
-------------------------------------------------------------------------------
*song featured on Gus Van Sants "Last Days" movie
*main role played by Pagoda's lead singer Michael Pitt
*"Happy Song" video also released on "Last Days" dvd


Tuning: standard


e|-------------------------------------------------------------------------|
B|----1-----1-----0-----0-----1-----1-----3-----3--------------------------|
G|---2-2---2-2---1-1---1-1---2-2---2-2---0-0---0-0-------------------------|
D|--2---2-2---2-2---2-2---2-3---3-3---3-0---0-0---0------------------------|
A|-0-----0-----2-----2-----3-----3-----2-----2-----------------------------|
E|-------------------------------------------------------------------------|


these chords are strummed during certain parts of song, each 5 times before
progressing to the next

e|-0----0-----1-----3------------------------------------------------------|
B|-1----0-----1-----3------------------------------------------------------|
G|-2----1-----2-----0------------------------------------------------------|
D|-2----2-----3-----0------------------------------------------------------|
A|-0----2-----3-----2------------------------------------------------------|
E|------0-----1-----3------------------------------------------------------|



parts he picks part of the chords then strums the last two strings before he
progresses into full strumming.

END
            
Tabs too difficult? Try these video lessons and learn fast.




comments powered by Disqus
↑ Back to top | Tablatures and chords are parodies/interpretations of the original songs. You may use it for private study, scholarship, research or language learning purposes only