>
 >
Run 1

Run 1 Guitar Tabs

Pacifier - Run 1 chords, tabs, tablatures, lyrics

Guitar lessons | Add/correct | Request | Top 50 tabs Artists:  A B C D E F G H I J K L M N O P Q R S T U V W X Y Z 0-9

Run 1 Guitar Tabs – Pacifier

CD, Sheet music, Poster

Do you like Run 1? Share with your friends now
Bass TabsTabsTabs v2
Pacifier - Run
tunning: cgcfad

Intro
-----
 |--------------------------------------------|
 |--------------------------------------------|
 |--------------------------------------------|   
 |---8-8-8-8-8-8-8-8-8-8-8-8-0-3--3-3-3-3-3---|  
 |---6-6-6-6-6-6-5-5-5-5-0-6-0-3--3-3-3-3-3---|
 |---------------------------0-3--3-3-3-3-3---|x2

 |--------------------------------------------|
 |--------------------------------------------|
 |--------------------------------------------|   
 |---8-8-8-8-8-8-8-8-8-8-8-8-0-6--6-6-6-6-6---|  
 |---6-6-6-6-6-6-5-5-5-5-0-6-0-6--6-6-6-6-6---|
 |---------------------------0-6--6-6-6-6-6---|x1

then play...

Guitar 1 - John
 |------------------------------|
 |------------------------------|
 |------------------------------|   
 |---6-6-6-6-5-4-1-0-1-0-1-/3---|  
 |---6-6-6-6-5-4-1-0-1-0-1-/3---|
 |---6-6-6-6-5-4-1-0-1-0-1-/3---|x1

Guitar 2 - Phil
 |------------------------------|
 |---6-6-6-6-6-6-6-6-6-6---6----|
 |---8-8-8-8-8-8-8-8-8-8---5----|   
 |-----------------------0-3----|  
 |-----------------------0-3----|
 |-----------------------0-3----|x1

Verse
-----

 |-------------------------------------|
 |-------6-------------6---------6-----|
 |-----8---8---8-----8---8---8-----8---|   
 |-----------7---7---------7---7-------|
 |---8-------------8-------------------|
 |-------------------------------------|x4

Chorus
------

 |-----------------------------------------------|
 |---3-3-3-3-3-4-4-4-4-4-/6-6-6-6-6-/8-8-8-8-8---|
 |---2-2-2-2-2-3-3-3-3-3-/5-5-5-5-5-/7-7-7-7-7---|   
 |-------------1-1-1-1-1-/3-3-3-3-3-/5-5-5-5-5---|  
 |-------------1-1-1-1-1-/3-3-3-3-3-/5-5-5-5-5---|
 |-------------1-1-1-1-1-/3-3-3-3-3-/5-5-5-5-5---|x3

 |------------------------------|
 |------------------------------|
 |------------------------------|   
 |---6-6-6-6-5-4-1-0-1-0-1-/3---|  
 |---6-6-6-6-5-4-1-0-1-0-1-/3---|
 |---6-6-6-6-5-4-1-0-1-0-1-/3---|x1

Verse 2
-------
Guitar 2 - Phil
 |-------------------------------------|
 |-------6-------------6---------6-----|
 |-----8---8---8-----8---8---8-----8---|   
 |-----------7---7---------7---7-------|
 |---8-------------8-------------------|
 |-------------------------------------|x4

Guitar 1 - John
 |-----------------------------------|
 |---6---6---6---6---6---6---6---6---|
 |---8---8---8---8---8---8---8---8---|   
 |-----------------------------------|  
 |-----------------------------------|
 |-----------------------------------|x4

Chorus
------

 |-----------------------------------------------|
 |---3-3-3-3-3-4-4-4-4-4-/6-6-6-6-6-/8-8-8-8-8---|
 |---2-2-2-2-2-3-3-3-3-3-/5-5-5-5-5-/7-7-7-7-7---|   
 |-------------1-1-1-1-1-/3-3-3-3-3-/5-5-5-5-5---|  
 |-------------1-1-1-1-1-/3-3-3-3-3-/5-5-5-5-5---|
 |-------------1-1-1-1-1-/3-3-3-3-3-/5-5-5-5-5---|x4


Interlude
---------

 |--------------------------------------------|
 |--------------------------------------------|
 |--------------------------------------------|   
 |---8-8-8-8-8-8-8-8-8-8-8-8-0-3--3-3-3-3-3---|  
 |---6-6-6-6-6-6-5-5-5-5-0-6-0-3--3-3-3-3-3---|
 |---------------------------0-3--3-3-3-3-3---|x2

 |--------------------------------------------|
 |--------------------------------------------|
 |--------------------------------------------|   
 |---8-8-8-8-8-8-8-8-8-8-8-8-0-6--6-6-6-6-6---|  
 |---6-6-6-6-6-6-5-5-5-5-0-6-0-6--6-6-6-6-6---|
 |---------------------------0-6--6-6-6-6-6---|x1
then play...

Guitar 1 - John
 |------------------------------|
 |------------------------------|
 |------------------------------|   
 |---6-6-6-6-5-4-1-0-1-0-1-/3---|  
 |---6-6-6-6-5-4-1-0-1-0-1-/3---|
 |---6-6-6-6-5-4-1-0-1-0-1-/3---|x1

Guitar 2 - Phil
 |------------------------------|
 |---6-6-6-6-6-6-6-6-6-6---6----|
 |---8-8-8-8-8-8-8-8-8-8---5----|   
 |-----------------------0-3----|  
 |-----------------------0-3----|
 |-----------------------0-3----|x2

---------------------------------
Bass interlude...Lots of feedback
---------------------------------

Pre Chorus
----------
 |-----------------------------------------------|
 |---3-3-3-3-3-4-4-4-4-4-/6-6-6-6-6-/8-8-8-8-8---|
 |---2-2-2-2-2-3-3-3-3-3-/5-5-5-5-5-/7-7-7-7-7---|   
 |-------------1-1-1-1-1-/3-3-3-3-3-/5-5-5-5-5---|  
 |-------------1-1-1-1-1-/3-3-3-3-3-/5-5-5-5-5---|
 |-------------1-1-1-1-1-/3-3-3-3-3-/5-5-5-5-5---|x2
P.M  ^ ^ ^ ^ ^ ^ ^ ^ ^ ^  ^ ^ ^ ^ ^  ^ ^ ^ ^ ^

Chorus
------
 |-----------------------------------------------|
 |---3-3-3-3-3-4-4-4-4-4-/6-6-6-6-6-/8-8-8-8-8---|
 |---2-2-2-2-2-3-3-3-3-3-/5-5-5-5-5-/7-7-7-7-7---|   
 |-------------1-1-1-1-1-/3-3-3-3-3-/5-5-5-5-5---|  
 |-------------1-1-1-1-1-/3-3-3-3-3-/5-5-5-5-5---|
 |-------------1-1-1-1-1-/3-3-3-3-3-/5-5-5-5-5---|x4


Outro
-----
Guitar 1 - John
 |------------------------------|
 |------------------------------|
 |------------------------------|   
 |---6-6-6-6-5-4-1-0-1-0-1-/3---|  
 |---6-6-6-6-5-4-1-0-1-0-1-/3---|
 |---6-6-6-6-5-4-1-0-1-0-1-/3---|x2

Guitar 2 - Phil
 |------------------------------|
 |---6-6-6-6-6-6-6-6-6-6---6----|
 |---8-8-8-8-8-8-8-8-8-8---5----|   
 |-----------------------0-3----|  
 |-----------------------0-3----|
 |-----------------------0-3----|x2





Comments


Popular Pacifier tabs & chords
Semi-normal 1 Bass Tabs
Bullitproof Tabs
Bullitproof (Intro) Tabs
Comfort Me 1 Tabs
Home Tabs
Home Again Tabs
Run Tabs
Semi-Normal Tabs
Stranger Tabs
Walls Tabs


Song lyrics



↑ Back to top | Tablatures and chords are parodies/interpretations of the original songs. You may use it for private study, scholarship, research or language learning purposes only
© 2014 AZChords.com Contact us | Privacy policy | DMCA | Add/correct tabs | Request tabs | Top 50 tabs