» » »

Pacifier, Comfort Me Bass tabs (ver.1)

Artists:  A B C D E F G H I J K L M N O P Q R S T U V W X Y Z # 

Comfort Me Bass tabs (ver.1)

Pacifier Tabs
 Rating:
4/5 (4 votes)
Comfort Me lessons Tabs too difficult? Try these video lessons and learn fast
                "Tuning CGCF

“ = Harmonic
/ = Slide


Intro 
F|--------------------|
C|--------------------|   
G|--------------------|
C|--2--2--------2--2--|

Verse/Main Riff
F|---------------|--------------------------------------|
C|---------------|--------------------------------------|   
G|---------------|--------------------------------------|
C|--2--2------2--|2--2---7--8--8--7----2-2-2---5 / 8----|

Chorus:
F|-------------------------------------------------------------------|
C|-------------------------------------------------------------------|  
G|----------------------------------5--5-5-5-5-5---7--7-7-7-7--7-----|
C|--7--7-7-7-7--7---5--5-5-5-5--5-------------------------------------|


Dont even play bass, but it plays along with guitar, sounds pretty easy, no 
timing is labeled, listen to song where and when to play what.
"            
Submit corrections

comments powered by Disqus
↑ Back to top | Pacifier Bass for Comfort Me. Lyrics for acoustic guitar and electric guitar. Tablatures and chords are parodies/interpretations of the original songs. You may use it for private study, scholarship, research or language learning purposes only