» » »

Canon In D Tabs (ver.2)

Artists:  A B C D E F G H I J K L M N O P Q R S T U V W X Y Z # 

Canon In D Tabs (ver.2)

Pachelbel
Rating:
0/5 (0 votes)

Hard to play? Try these video lessons and learn fast.
                This is the punk version



e--17-14-15-17-14-15-17--------------12-14-15-14-----12-14--------------------------
B--------------------------12-14-15--------------15-------------------12------------
G----------------------14---------------------------------------12-14----14-12-14---
D-----------------------------------------------------------16----------------------

e-----------------------------------------------------------------------------------
B-------------12----------------------------------12----12-----12----14-15----------
G---12-14-12-----14-12----------------------12-14----12-----12--------------14------
D-16-------------------16-14-16-14-12-14-16-----------------------------------------

e----------12-14-15-17-17-14-15-17-14-15-17-------------12-14-15-14----12-14--------
B-12-14-15-------------------------------------12-14-15-------------15-------15-----
G-------------------------------------------14--------------------------------------

e-12-14----------------------------------------------------------------------------
B----------------12----------15-14-15-12-15-14-12----------------------12-14-15-12-
G----------12-14----14-12-14----------------------14-12-14-12----12-14-------------
D--------16---------------------------------------------------16-------------------

e-------------------------12-14-15-17-17
B-15-14-15-12----12-14-15---------------
G-------------14------------------------


speed this up it wil sound cooler

peace out
Russell W.
            
Hard to play? Try these video lessons and learn fast. | Correct




comments powered by Disqus
↑ Back to top | Tablatures and chords are parodies/interpretations of the original songs. You may use it for private study, scholarship, research or language learning purposes only