» » »

Oysterhead, Little Faces Bass tabs (ver.2)

Artists:  A B C D E F G H I J K L M N O P Q R S T U V W X Y Z # 

Little Faces Bass tabs (ver.2)

Oysterhead Tabs
Rating:
0/5 (0 votes)
Little Faces lessons Tabs too difficult? Try these video lessons and learn fast
                I haven't found a correct bass tab to this song yet, and i think i may have figured it 
is slappin' the E string and poppon' the G and D, and in the second part, the A.

Start this beginning part slightly muted...
Verse 
G---------4--4--5-4--4--|
D-----------5--5-5--4---|
A-----------------------|
E--0-0-0----------------|

G--------4--4--5-------4---4---|
D----------5-xx(5)--x----------|x(5)xx(4)
A------------------------------|
E--0-0-0-----------------------|

Chorus
------------------------|
G-----------------------|
D-----------------------|
A-----5---------7-------|
E--3-3--3-3--5-5--5-5---|


Bridge type thingy
------

G----------------------------|
D----------------------------|
A-------7---7---5--4---3---2-|
E--0-0-0--0--xx--xx--xx--xx--|


Key_
x-muted <(#)-that number fret muted

T.P.=)
            
Submit corrections

comments powered by Disqus
↑ Back to top | Oysterhead Bass for Little Faces. Lyrics for acoustic guitar and electric guitar. Tablatures and chords are parodies/interpretations of the original songs. You may use it for private study, scholarship, research or language learning purposes only