>
 >
Aicha 2

Aicha 2 Guitar Tabs

Outlandish - Aicha 2 chords, tabs, tablatures, lyrics

Guitar lessons | Add/correct | Request | Top 50 tabs Artists:  A B C D E F G H I J K L M N O P Q R S T U V W X Y Z 0-9

Aicha 2 Guitar Tabs – Outlandish

CD, Sheet music, Poster

Do you like Aicha 2? Share with your friends now
ChordsChords v2Chords v3Chords v4Chords v5Chords v6Chords v7TabsTabs v2Tabs v3Ukulele
Standard tuning!

---------|---3-----|---------|---5-----|-----7----|-----------|-------9--7-|--
-----3---|---3-----|-----7---|---5-----|-----7----|----12-----|-------10-8-|--
---------|-0-------|-----7---|-6-------|---7------|----12-----|----11----7-|--
---4-----|-0-------|---7-----|-7-------|---9------|-12--------|-11-------9-|--
-2-------|---------|-5-------|---------|-------10-|-----------|-9--------7-|--
-------3-|---------|-------5-|---------|/7--------|-----------|------------|--
                                                                              

---------|--------------------------------------------------------------------
---------|--------------------------------------------------------------------
---------|--------------------------------------------------------------------
---------|--------------------------------------------------------------------
---------|--------------------------------------------------------------------
---------|--------------------------------------------------------------------
                                                                              

-----2---|---3-----|---------|---5-----|-----7----|-----------|-----------|---
-----3---|---3-----|-----7---|---5-----|-----7----|----12-----|----10---8-|---
---------|-0-------|-----7---|-6-------|---7------|----12-----|----11---7-|---
---4-----|-0-------|---7-----|-7-------|---9------|-12--------|----11---9-|---
-2-------|---------|-5-------|---------|-------10-|-----------|/9-------7-|---
-------3-|---------|-------5-|---------|/7--------|-----------|-----------|---
 Verse 1: (00:45)                                                             

---------|--------------------------------------------------------------------
---------|--------------------------------------------------------------------
---------|--------------------------------------------------------------------
---------|--------------------------------------------------------------------
---------|--------------------------------------------------------------------
---------|--------------------------------------------------------------------
     (2x)                                                                     

-----2---|---------|---------|----------------|-----2h3--|---------|---9----7-
-----3---|---0-----|---7-----|------2h3p2-----|----------|---0-----|---10---8-
---------|---------|-------6-|---2--------4p2-|----------|---------|---11---7-
---4-----|-0-------|-------7-|----------------|---3------|---------|-0------9-
-2-------|---------|-5-----7-|----------------|-2--------|---------|--------7-
-------3-|---------|-------5-|----------------|--------3-|---------|----------
 Chorus:                                                                      

--|-------7-|-----2---|---------|---------|------5--|---------|---------|-----
--|-------8-|---0-----|---0-----|---7-----|-----5---|---3-----|---0-----|-----
--|-------7-|---------|---0-----|---7---6-|----6--6-|---------|---0-----|-----
--|-------9-|---------|-0-------|-------7-|--------7|---------|---------|---4-
--|-------7-|-2-------|---------|-5-----7-|---------|-2-------|---------|--5--
--|---------|-------3-|---------|-------5-|---------|-------3-|---------|-5---
                                                                              

--------|-----0h2p0---|-------------------------------------------------------
--------|----------3p2|-------------------------------------------------------
--------|-------------|-------------------------------------------------------
--x-x---|-------------|-------------------------------------------------------
--x-x---|-------------|-------------------------------------------------------
--x-x---|-------------|-------------------------------------------------------
                                                                              

----------|---------|----------|-----0h2p0---|-----------|---------|----------
----------|---------|---10---8-|----------3p2|--------2h3|---------|---7------
-4v-----2v|---------|---11---7-|-------------|-4v--------|---------|---7---6--
----------|---------|---11---9-|-------------|-----------|---------|-------7--
----------|---------|-9------7-|-------------|-----------|--------5|-5--------
----------|---------|----------|-------------|-----------|---------|-------5--
 Verse 2:                                                                     

-|-----0h2p0---|--------------------------------------------------------------
-|----------3p2|--------------------------------------------------------------
-|----2--------|--------------------------------------------------------------
-|-------------|--------------------------------------------------------------
-|-------------|--------------------------------------------------------------
-|-------------|--------------------------------------------------------------
           (2x)                                                               

----------|---3-----|---------|-----0h2p0----|-----------|---3-----|----------
----------|---3-----|-----7---|---5------3p2-|--------2h3|---3-----|-----7----
-4v-----2-|---------|-----7---|--------------|-4v--------|---------|-----7----
----------|---------|---7-----|-7------------|-----------|---------|---7------
----------|---------|-5-------|--------------|-----------|---------|-5--------
----------|-3-------|-------5-|--------------|-----------|-3-------|-------5--
 Chorus:                                                                      

-|---------|------------------------------------------------------------------
-|---5-----|------------------------------------------------------------------
-|---------|------------------------------------------------------------------
-|-7-------|------------------------------------------------------------------
-|---------|------------------------------------------------------------------
-|---------|------------------------------------------------------------------
                                                                              

-0-|---0-|---------|---------|-------8p7|-8p7----7-|---------------|----------
-0-|---0-|---------|-------1-|-----10---|----8---8-|-----8-7h8p7--8|----------
-0-|---0-|---------|-----0---|----------|------9---|------------7--|-9v-------
-2-|-----|---------|---2-----|----------|----------|---------------|------10--
-2-v-----|---------|-3-------|----------|----------|---------------|----------
-0-------|---------|---------|----------|----------|---------------|----------
 Interlude:                                                                   

-8-|------------|---------------|----------------|---------|--------------|---
---|-----------8|-10-----------8|-10-8p7--7------|-------7-|----7-9-10-10/|---
---|-9-------9--|----9/11\9---9-|-----------9p7--|-----7-7-|--------------|---
---|--10\7------|---------------|---------------9|---------|--------------|---
---|------------|---------------|----------------|---------|--------------|---
---|------------|---------------|----------------|---------|--------------|---
                                                                              

----------|------------|---------------------|---------------|----------|-----
-12-----7-|-------12-12|12\10-10-10-10\8-8-8-|-8p7-----------|----------|-----
--------7-|------------|---------------------|-----9-7-9-----|--------9-|-----
------9---|------------|---------------------|---------------|-----10---|-----
----------|------------|---------------------|---------------|---10-----|-----
----------|------------|---------------------|---------------|-8--------|-----
                                                                              

-----|-------------|----------------|-------------|-------------|---------|---
---7-|-7h8--7----7-|h8-----7h8p7----|-77777-------|-------------|-----7-8-|---
-9---|---------9---|------------9p7-|-------99999-|-88888-------|---------|---
-----|-------------|----------------|-------------|-------101010|-9-------|---
-----|-------------|----------------|-------------|-------------|---------|---
-----|-------------|----------------|-------------|-------------|---------|---
                                                                              

-----------|-------------|--------------|----------------|------------------|-
-10-10-----|-10/12---10-8|-7------------|----------------|------------------|-
-----------|-------------|---9-7--------|----------------|------------------|-
-----------|-------------|-------10-9-7-|----------------|------------------|-
-----------|-------------|--------------|-10-9-7---------|------------------|-
-----------|-------------|--------------|--------10-8-7-5|-7p5h7p5h7p5h7----|-
                                                                              

---------|---------|---------|---------|----------|-----------|----------|----
-----3---|---3-----|-----7---|---5-----|-----7----|----12-----|---10---8-|----
-----4---|---0-----|---7-----|---6-----|-----7----|----12-----|---11---7-|----
---4-----|-0-------|---7-----|-7-------|---9------|-12--------|---11---9-|----
-2-------|---------|-5-------|---------|-------10-|-----------|/9------7-|----
-------3-|---------|-------5-|---------|/7--------|-----------|----------|----
 Verse 3:                                                            (2x)     

----------|-----------|-x-------|---------|-----------------------------------
-----7----|----12-----|-x-------|---------|-----------------------------------
-----7----|----12-----|-x-------|---------|-----------------------------------
---9------|-12--------|-x-------|---------|-----------------------------------
-------10-|-----------|-x-------|---------|-----------------------------------
-7--------|-----------|-x-------|---------|-----------------------------------
 Chorus:                                                                      

---------|---------|---------|---------|---------|---------|----------|----10-
-----3---|---3-----|-----7---|---5-----|-----3---|---3-----|---10---8-|-------
-----4---|---0-----|-----7---|---6-----|-----4---|---0-----|---11---7-|-------
---4-----|-0-------|---7-----|-7-------|---4-----|-0-------|---11---9-|-------
-2-------|---------|-5-------|---------|-2-------|---------|-9------7-|-------
-------3-|---------|-------5-|---------|-------3-|---------|----------|-------
                                                                              

-p5---|---------|---------|---------|---------|---------|---------|---------|-
---8--|-----3---|---3-----|-----7---|---5-----|-----3---|---3-----|-----7---|-
------|-----4---|---0-----|-----7---|---6-----|-----4---|---0-----|-----7---|-
------|---4-----|-0-------|---7-----|-7-------|---4-----|-0-------|---7-----|-
------|-2-------|---------|-5-------|---------|-2-------|---------|-5-------|-
------|-------3-|---------|-------5-|---------|-------3-|---------|-------5-|-
                                                                              

-----0h2p0----|---------|---------|---------|---------|-----2---|---------|---
---5------3p2-|-----3---|---3-----|-----7---|---5-----|-----3---|---3-----|---
---6----------|-----4---|---0-----|-----7---|---6-----|---4-----|---0-----|---
-7------------|---4-----|-0-------|---7-----|-7-------|---------|-0-------|---
--------------|-2-------|---------|-5-------|---------|-2-------|---------|-5-
--------------|-------3-|---------|-------5-|---------|-------3-|---------|---
                                                                              

--------|---------|---------|---------|---------|---------|---------|---------
--7-----|---5-----|-----3---|---3-----|-----7---|---5-----|-----3---|---3-----
--------|---6-----|-----4---|---0-----|---7-----|---6-----|-----4---|---0-----
--------|-7-------|---4-----|-0-------|---------|-7-------|---4-----|-0-------
--------|---------|-2-------|---------|-5-------|---------|-2-------|---------
------5-|---------|-------3-|---------|-------5-|---------|-------3-|---------
                                                                              

--|---------|---5-0h2p0----|------2---|---------|---------|---5-0h2p0----|----
--|-----7---|---5------3p2-|------3---|---3-----|-----7---|---5------3p2-|----
--|-----7---|---6----------|-4------2-|---0-----|-----7---|---6----------|-4--
--|---7-----|-7------------|----------|-0-------|---7-----|-7------------|----
--|-5-------|--------------|-2--------|---------|-5-------|--------------|-2--
--|-------5-|--------------|--------3-|---------|-------5-|--------------|----
                                                                              

---2-----|---------|---------|-----0h2p0----|---------|-----0h2p0----|--------
---3p2h3-|---3-----|-----7---|----8-----3p2-|-----3---|---3------3p2-|-0---7--
---------|---0-----|-----7-7-|--------------|-4---4-2-|---0----------|-----7--
-4-------|-0-------|---7---5-|--------------|---4-----|-0------------|---7----
---------|---------|-5-----7-|--------------|-2-------|--------------|-5------
-------3-|---------|---------|--------------|-------3-|--------------|--------
                                                                              

----|---5-0h2p0----|---------|-----0h2p0----|----------|---5-----|------------
----|---5------3p2-|-----3---|---3------3p2-|-0---7----|---5-----|------------
-6h7|---6----------|-4---4-2-|---0----------|-----7-6h7|---6-----|------------
----|-7------------|---4-----|-0------------|---7------|-7-------|------------
----|--------------|-2-------|--------------|-5--------|---------|------------
-5--|--------------|-------3-|--------------|-------5--|---------|------------
                                                                              

---------|---------|---------|---5-----|--------------------------------------
-----3---|---3-----|-----7---|---5-----|--------------------------------------
-----4---|---0-----|-----7---|---6-----|--------------------------------------
---4-----|-0-------|---7-----|-7-------|--------------------------------------
-2-------|---------|-5-------|---------|--------------------------------------
-------3-|---------|-------5-|---------|--------------------------------------
 Outro:                            (3x)  Fade out...





Comments


Popular Outlandish tabs & chords
Aicha 2 Chords
Aicha 5 Chords
Aicha 6 Chords
Callin' U Chords
Feels Like Saving The World Chords
I Only Ask Of God Chords
Warriorworrier Chords
Aicha Tabs
Aicha Intro Tabs
I Only Ask Of God Ukulele


Song lyrics



↑ Back to top | Tablatures and chords are parodies/interpretations of the original songs. You may use it for private study, scholarship, research or language learning purposes only
© 2014 AZChords.com Contact us | Privacy policy | DMCA | Add/correct tabs | Request tabs | Top 50 tabs