» » »

Our Lady Peace, Right Behind You Tabs (ver.1)

Artists:  A B C D E F G H I J K L M N O P Q R S T U V W X Y Z # 

Right Behind You Tabs (ver.1)

Our Lady Peace Tabs
 Rating:
4/5 (4 votes)
Right Behind You lessons Tabs too difficult? Try these video lessons and learn fast
                OLP TUNNING!!!
eb ab db gb bb eb
__________________
*****************
/ = slide up    *
\ = slide down  *
[x] = HARMONIC  *
*****************

***DONE IN ORDER OF SONG***

Intro (a little tricky...)
      4X                   1X
eb-|-------------|----------------------------|
bb-|-------88----|-------88--------88--77-----|
gb-|----77----77-|----77----77------------77--|
db-|-55----------|-77-----------77------------|
ab-|-------------|----------------------------|
eb-|-------------|----------------------------|

        (Weird affects along with this)
eb-|--------------|
bb-|--------------|
gb-|--------------| 2X
db-|--5--4---7----|
ab-|--3--2---5----|
eb-|--------------|

       DONE ONCE SOFTLY
eb-|----------|-------------|
bb-|----------|-------------|
gb-|--2/4/5---|--5--4--7----|
db-|--2/4/5---|--5--4--7----|
ab-|--0/2/3---|--3--2--5----|
eb-|----------|-------------|
     DONE WITH DISTORTION
eb-|----------|--------------|
bb-|----------|--------------|
gb-|--2/4/5---|--5--4--5--2--|
db-|--2/4/5---|--5--4--5--2--|
ab-|--0/2/3---|--3--2--3--0--|
eb-|----------|--------------|

CHORUS
______
follow, yourself, when chords  change

         3x            4th time
eb-|----------------|-----------------|
bb-|----------------|-----------------|
gb-|--5----7--------|--2--------------|
db-|--5----7--2--5--|--2----2-2---5---| 2X
ab-|--3----5--2--5--|--0----2-2---5---|
eb-|----------0--3--|-------0-0---3---|


       4X                     1X
eb-|-------------|----------------------------|
bb-|-------88----|-------88--------88--77-----|
gb-|----77----77-|----77----77------------77--|
db-|-55----------|-77------------77-----------|
ab-|-------------|----------------------------|
eb-|-------------|----------------------------|


eb-|--------------|
bb-|--------------|
gb-|--------------| 2X
db-|--5--4---7----|
ab-|--3--2---5----|
eb-|--------------|

       DONE ONCE SOFTLY
eb-|----------|-------------|
bb-|----------|-------------|
gb-|--2/4/5---|--5--4--7----|
db-|--2/4/5---|--5--4--7----|
ab-|--0/2/3---|--3--2--5----|
eb-|----------|-------------|

     DONE WITH DISTORTION
eb-|----------|--------------|
bb-|----------|--------------|
gb-|--2/4/5---|--5--4--5--2--|
db-|--2/4/5---|--5--4--5--2--|
ab-|--0/2/3---|--3--2--3--0--|
eb-|----------|--------------|

         3x              4th time
eb-|----------------|-----------------|
bb-|----------------|-----------------|
gb-|--5----7--------|--2--------------|
db-|--5----7--2--5--|--2----2-2---5---| 2X
ab-|--3----5--2--5--|--0----2-2---5---|
eb-|----------0--3--|-------0-0---3---|


Interlude
                                   over interlude
eb-|-----------------------------|-------------------|
bb-|-----------------------------|-------------------|
gb-|-5-----7---2-4-5---5-----7---|--[5]-----[5]------|
db-|-5--2--7---2-4-5---5--2--7---|------[3]-----[3]--|
ab-|-3--2--5---0-2-3---3--2--5---|-------------------|
eb-|----0-----------------0------|-------------------|

soft part (listen to when chord changes)
eb-|---------------------------------|
bb-|---------------------------------|
gb-|--0--0--0--0--0--0---------------|
db-|--5--5--5--5--5--5--2---------5--|
ab-|--3--5--3--5--3--5--0----2-2--5--|
eb-|-------------------------0-0--3--|

       3x               4th time
eb-|----------------|-----------------|
bb-|----------------|-----------------|
gb-|--5----7--------|--2--------------|
db-|--5----7--2--5--|--2----2-2---5---| 3X
ab-|--3----5--2--5--|--0----2-2---5---|
eb-|----------0--3--|-------0-0---3---|


end on
eb-|-----|
bb-|-----|
gb-|--7--|
db-|--7--|
ab-|--5--|
eb-|-----|

thus is all!
:)
            
Submit corrections

comments powered by Disqus
↑ Back to top | Our Lady Peace Tabs for Right Behind You. Lyrics for acoustic guitar and electric guitar. Tablatures and chords are parodies/interpretations of the original songs. You may use it for private study, scholarship, research or language learning purposes only