» » »

Orbison Roy, You Got It Bass tabs (ver.1)

Artists:  A B C D E F G H I J K L M N O P Q R S T U V W X Y Z # 

You Got It Bass tabs (ver.1)

Orbison Roy Tabs
 Rating:
4/5 (4 votes)
You Got It lessons Tabs too difficult? Try these video lessons and learn fast
                Intro
|-----------------------------------|-----------------------------------|
|-----------------------------------|-----------------------------------|
|--0----0---0-0----0-------------5--|--0----0---0-0----0-------------5--|
|-----------------------3--r-3------|----------------------3--r-3-------|

  Verse
|-----------------------------------|-----------------------------------|
|-----------------------------------|-----------------------------------|
|--0----0---0-0----0-------------5--|--0----0---0-0----0-------------5--|
|-----------------------3--r-3------|----------------------3--r-3-------|
                                                                   0.21 . 
0.25
|-----------------------------------|-----------------------------------|
|-----------------------------------|-----------------------------------|
|--0----0---0-0----0-------------5--|-----------------------------------|
|-----------------------3--r-3------|--0-----0--0----2----3---3---3-----|
                                 .. money just can.t buy


Verse 2     0.25 . 0.41
|-------------------------------|------------------------------------|
|-------------------------------|-------------------------2----2--2--|
|--0----0--0--------------------|--2----4----4--4----4---------------|
|---------------0----2----2--2--|------------------------------------|
One look.           ...from you
|-------------------------------|------------------------------------|
|-------------------------------|-------------------------2----2--2--|
|--0----0--0--------------------|--2----4----4--4----4---------------|
|---------------0----2----2--2--|------------------------------------|
                                                   .....here to stay

Chorus      0.40 . 0.50

|------------------------------------|---------------------------------------|
|------------------------------------|---------------------------------------|
|--0----0----4--4--------------5--5--|--0----0----4--4--------------5-5-5-5--|
|--------------------2-2--2----------|--------------------2-2--2-------------|
Anything you want..
                   0.50 . 1.00
|--------------------------------------|-------------------------------------|
|--------------------------------------|--2---2-2-2---2----------------------|
|--0----0----4--4-------------5-5-5-5--|-------------------------------------|
|-------------------2-2--2-------------|-------------------0----0----0----0--|
                                                                       .. ba 
. by!

Play Verse 1 once
Play Verse 2 once
Play Chorus once

There.s a kind of bridge after the Chorus, just continue to play a steady 
open E until the do-do-do.s start . like so!

|----------------------|--------------------|
|----------------------|--------------------|
|----------------------|--------------------|
|----0----0----0----0--|--0----0----0----0--|

At 2.05, or when the do-do-do.s start, play Chorus again.

At 2.23, or when the lyrics get to .I.m glad to give. . Play Verse 2

And at 3.00, play the Chorus one last time, complete with the extended open 
E.



the record to pick up the exact tempo if my notation isn.t clear! =)


I.ll be compiling all the tabs I transcribe at 
            
Submit corrections

comments powered by Disqus
↑ Back to top | Orbison Roy Bass for You Got It. Lyrics for acoustic guitar and electric guitar. Tablatures and chords are parodies/interpretations of the original songs. You may use it for private study, scholarship, research or language learning purposes only