» » »

Orbison Roy, Pretty Woman Bass tabs (ver.1)

Artists:  A B C D E F G H I J K L M N O P Q R S T U V W X Y Z # 

Pretty Woman Bass tabs (ver.1)

Orbison Roy Tabs
 Rating:
4/5 (4 votes)
Pretty  Woman lessons Tabs too difficult? Try these video lessons and learn fast
                "Intro:
                                                                          X4
G |-------|-------|-------|-------|-----------------------------------------|
D |-------|-------|-------|-------|*---------------4--2--------------------*|
A |-------|-------|-------|-------|*---------2--5--------5-----------------*|
E |-------|-------|-------|-------|-0--0--4---------------------------------|

Riff1:
                        X2
G |-----------------------|-------------------------------------------------|
D |*------------4--4-----*|-------------------------------------------------|
A |*-----4--7-------4--7-*|-5--5--5-5/7--7---7-7---7-7---7-7----------------|
E |--5--5-----------------|-----55--------77----77----77----77--------------|

(intro X4)
(riff1)
(intro X4 (last time hold E)

Bridge:
                                            1.                            2.
G |-------------------------------------------|-----------------------------|
D |*-----3--5---5-5-3-------2--5-2-----------*|------4--7-------------------|
A |*--5-5------------5---3-3------------3--7-*|----5------------------------|
E |----------------------------------5-5------|-----------------------------|

(...cause i need you...)

G |-------------------------------------------------------------------------|
D |---4--4-2------------------------------------4--4--4-2----3---3----------|
A |----4------------5--8--5--7----5-------4--7------4------5---5------------|
E |---------------------------------7--5------------------------------------|


Listen to the song for perfect timing and song structure...

enjoy!
"            
Submit corrections

comments powered by Disqus
↑ Back to top | Orbison Roy Bass for Pretty Woman. Lyrics for acoustic guitar and electric guitar. Tablatures and chords are parodies/interpretations of the original songs. You may use it for private study, scholarship, research or language learning purposes only