» » »

Orbison Roy, Only The Lonely Bass tabs (ver.1)

Artists:  A B C D E F G H I J K L M N O P Q R S T U V W X Y Z # 

Only The Lonely Bass tabs (ver.1)

Orbison Roy Tabs
 Rating:
4/5 (4 votes)
Only The Lonely lessons Tabs too difficult? Try these video lessons and learn fast
1
                roy orbison_only_the_lonely

TablEdited by Jan Bjorklund   
You are welcome to request for tabs!
Fingering and positions as suggested by TablEdit, please use common sense.


TablEdited by Jan Bjorklund
Tuning : E A D G 	Time Signature: 4/4

 |       |       |       |        |       |       |       |        
|------------2---5-------2---5---|------------2---5-------2---5---|
|3-------------------------------|3-------------------------------|
|--------------------------------|--------------------------------|
|--------------------------------|--------------------------------|

 |       |       |       |        |       |       |       |        
|--------------------------------|--------------------------------|
|----------------0-----------0---|----------------0-----------0---|
|------------1-----------1-------|------------1-----------1-------|
|3-------------------------------|3-------------------------------|

 |       |       |       |        |       |       |       |        
|--------------------------------|--------------------------------|
|------------0---3-------0---3---|--------------------------------|
|1-------------------------------|3-----------3-----------3-------|
|--------------------------------|----------------3---------------|

 |       |       |       |        |       |       |       |        
|------------2---5-------2---5---|--------------------------------|
|3-------------------------------|--------------------------------|
|--------------------------------|3-----------3-----------3-------|
|--------------------------------|----------------3---------------|

 |       |       |       |        |       |       |       |        
|------------2---5---------------|--------------------------------|
|3-------------------------------|--------------------------------|
|--------------------------------|--------------------------------|
|------------------------5-------|1-------------------------------|

 |       |       |       |        |       |       |       |        
|------------2---5-------2---5---|--------------------------------|
|3-------------------------------|--------------------------------|
|--------------------------------|3-----------3-----------3-------|
|--------------------------------|----------------3---------------|

 |       |       |       |        |       |       |       |        
|--------------------------------|--------------------------------|
|--------------------------------|--------------------------------|
|3-----------3-----------3-------|3---------------1---------------|
|----------------3---------------|--------------------------------|

 |       |        |       |        |       |       |       |        
|----------------|--------2---5---|--------------------------------|
|----------------|3---------------|--------------------------------|
|1-------3-------|----------------|--------------------------------|
|----------------|----------------|1---------------1---------1-----|

 |       |       |       |        |       |       |       |        
|--------------------------------|--------------------------------|
|--------------------------------|--------------------------------|
|--------------------------------|--------------------------------|
|1-------------------------------|----------------1---------1-----|

 |       |       |       |        |       |       |       |        
|--------------------------------|--------------------------------|
|--------------------------------|--------------------------------|
|--------------------------------|----------------1---------1-----|
|1-------------------------------|--------------------------------|

 |       |       |       |        |       |       |       |        
|--------------------------------|--------------------------------|
|--------------------------------|--------------------------------|
|1-------------------------------|--------------------------------|
|--------------------------------|----------------3---------3-----|

 |       |       |       |        |       |       |       |        
|--------------------------------|------------2---5-------2---5---|
|--------------------------------|3-------------------------------|
|3-------------------------------|--------------------------------|
|--------------------------------|--------------------------------|

 |       |       |       |        |       |       |       |        
|--------------------------------|------------------------2---5---|
|--------2---------------0-------|----------------3---------------|
|3---------------1---------------|--------5-----------------------|
|--------------------------------|6-------------------------------|

 |       |       |       |        |       |       |       |        
|--------2---5-----------2---5---|--------2---5-----------2---5---|
|----3-----------3---------------|----3-----------3---------------|
|3-------------------------------|3-------------------------------|
|--------------------------------|--------------------------------|

 |       |       |       |        |       |       |       |        
|--------------------------------|--------------------------------|
|--------------------------------|--------------------------------|
|--------------------------------|--------------------------------|
|--------------------------------|--------------------------------|

 |       |        |       |       |       |        
|----------------|--------------------------------|
|----------------|--------0---3---0-------0---3---|
|----------------|1-------------------1-----------|
|----------------|--------------------------------|

 |       |       |       |        |       |        
|--------------------------------|------------0---|
|--------------------------------|--------2-------|
|3-----------3-----------3-------|3---------------|
|----------------3---------------|----------------|

 |       |       |       |        |       |       |       |        
|------------2---5-------2---5---|--------2-----------------------|
|3-------------------------------|3-------------------------------|
|--------------------------------|--------------------------------|
|--------------------------------|------------1-------------------|

 
            
Submit corrections

comments powered by Disqus
↑ Back to top | Orbison Roy Bass for Only The Lonely. Lyrics for acoustic guitar and electric guitar. 1 Tablatures and chords are parodies/interpretations of the original songs. You may use it for private study, scholarship, research or language learning purposes only