>
 >
Rock A Bye

Rock A Bye Bass Tabs

Orange And Lemons - Rock A Bye chords, tabs, tablatures, lyrics

Guitar lessons | Add/correct | Request | Top 50 tabs Artists:  A B C D E F G H I J K L M N O P Q R S T U V W X Y Z 0-9

Rock A Bye Bass Tabs – Orange And Lemons

CD, Sheet music, Poster

Do you like Rock A Bye? Share with your friends now
Bass TabsChordsUkulele
Intro:
G|---5-----3-5-|--5-----3---|
D|-----3h5-----|----3h5---5-|
A|-3-----------|-3----------|
E|-------------|------------| 3x

G|---5-----3-5-|--5----7-9-|
D|-----3h5-----|-----------|
A|-3-----------|-3-3-5-7--|
E|-------------|-----------|

Verse:
You can rock my baby. . .
G|------------|---------------|---------------|--------------|
D|------------|---------------|---------------|--------------|
A|-8-88-88-88-|---------------|-(8)8-88-88-88-|---10-10---10-|
E|------------|-(8)8-88-88-88-|---------------|-10------10---|

Pre-chorus:
G|-----------------------|-------------------|-------------------|
D|-------9-9-10-10-12-12-|-----7-7-8-8-10-10-|-----7-7-8-8-10-10-|
A|-10-10-----------------|-8-8---------------|-8-8---------------|
E|-----------------------|-------------------|-------------------|

	Or
      G|-------------|-------------|-------------|
      D|-------------|-------------|-------------|
      A|----22-33-55-|----00-11-33-|----00-11-33-|
      E|-33----------|-11----------|-11----------|

G|-----------|-----------|-------------|-----------|
D|-10-10--10-|-10-10--10-|-12-12----12-|-10-10--10-|
A|-------8---|-------8---|-------10----|-------8---|
E|-----------|-----------|-------------|-----------|

	Or
      G|---------|---------|---------|---------|
      D|---------|---------|---------|---------|
      A|-3-3---3-|-3-3---3-|-5-5---5-|-3-3---3-|
      E|-----1---|-----1---|-----3---|-----1---|

Chorus:
Rock my baby good . . .
G|--------------|----|
D|------10-10---|----|
A|-8--8-------8-|-10-|
E|--------------|----|

G|---5-----3-5-|--5-----3---|
D|-----3h5-----|----3h5---5-|
A|-3-----------|-3----------|
E|-------------|------------|

G|--------------|-----|
D|------10-10---|-----|
A|-8--8-------8-|-10-\|
E|--------------|-----|

Pre-Verse:
G|---5-----3-5-|--5-----3---|
D|-----3h5-----|----3h5---5-|
A|-3-----------|-3----------|
E|-------------|------------| 

G|---5-----3-5-|--5----7-9-|
D|-----3h5-----|-----------|
A|-3-----------|-3-3-5-7--|
E|-------------|-----------|

Verse:
Hold on the bow is breaking . . .
G|------------|---------------|----------------------------|--------------|
D|------------|---------------|----------------------------|--------------|
A|-8-88-88-88-|---------------|----------------------------|---10-10---10-|
E|------------|-(8)8-88-88-88-|-(1)-1---1-1---(1)-1---1-1/-|-10------10---|

Pre-chorus:

G|-----------------------|-------------------|-------------------|
D|-------9-9-10-10-12-12-|-----7-7-8-8-10-10-|-----7-7-8-8-10-10-|
A|-10-10-----------------|-8-8---------------|-8-8---------------|
E|-----------------------|-------------------|-------------------|

	Or
      G|-------------|-------------|-------------|
      D|-------------|-------------|-------------|
      A|----22-33-55-|----00-11-33-|----00-11-33-|
      E|-33----------|-11----------|-11----------|

G|-----------|-----------|-------------|-----------|
D|-10-10--10-|-10-10--10-|-12-12----12-|-10-10--10-|
A|-------8---|-------8---|-------10----|-------8---|
E|-----------|-----------|-------------|-----------|

	Or
      G|---------|---------|---------|---------|
      D|---------|---------|---------|---------|
      A|-3-3---3-|-3-3---3-|-5-5---5-|-3-3---3-|
      E|-----1---|-----1---|-----3---|-----1---|

Chorus:
Rock my baby . . .
G|--------------|-----|
D|------10-10---|-----|
A|-8--8-------8-|-10-\|
E|--------------|-----|

G|---5-----3-5-|--5-----3---|
D|-----3h5-----|----3h5---5-|
A|-3-----------|-3----------|
E|-------------|------------|

G|--------------|-----|
D|------10-10---|-----|
A|-8--8-------8-|-10-\|
E|--------------|-----|

G|---5-----3-5-|--5-----3---|
D|-----3h5-----|----3h5---5-|
A|-3-----------|-3----------|
E|-------------|------------| 2x

Adlib:

G|---5-----3-5-|--5-----3---|
D|-----3h5-----|----3h5---5-|
A|-3-----------|-3----------|
E|-------------|------------| 4x

G|---5-5-----5-|-------------|-------------|---|
D|-------5-3---|---3-3-----3-|---5-5-----5-|---|
A|-3-----------|-------3-1---|-------5-3---|---|
E|-------------|-1-----------|-3-----------|-3-|

Chorus:

G|---5-----3-5-|--5-----3-----|--------------|----------|
D|-----3h5-----|----3h5-----5-|------10-10---|----------|
A|-3-----------|-3------------|-8--8-------8-|-10---10\-|
E|-------------|--------------|--------------|----------| 4x

Outro:

G|---5-----3-5-|--5-----3-----|
D|-----3h5-----|----3h5-----5-|
A|-3-----------|-3------------|
E|-------------|--------------| 3x

G|---5-----3-5-|-------0-2-0---|
D|-----3h5-----|-2-3-4---------|
A|-3-----------|-------------3-|
E|-------------|---------------|





Comments


Popular Orange And Lemons tabs & chords
Chatters Tale 1 Chords
Huwag Kang Matakot Chords
Magmahal Muli Chords
Pinoy Ako Chords
Kailangan Kita Tabs
Beginning Of Something Ukulele
Its About Time Ukulele
Just Like A Splendid Love Song Ukulele
My Butterfly Ukulele
Strike Whislt The Iron Is Hot Ukulele


Song lyrics



↑ Back to top | Tablatures and chords are parodies/interpretations of the original songs. You may use it for private study, scholarship, research or language learning purposes only
© 2014 AZChords.com Contact us | Privacy policy | DMCA | Add/correct tabs | Request tabs | Top 50 tabs