» » »

Orange 9mm, Pissed Tabs (ver.2)

Artists:  A B C D E F G H I J K L M N O P Q R S T U V W X Y Z # 

Pissed Tabs (ver.2)

Orange 9mm Tabs
Rating:
0/5 (0 votes)
Pissed lessons Tabs too difficult? Try these video lessons and learn fast
                p**sed          by Orange 9mm
                from the album "Driver (Not Included)"
                words and music by Chaka Malik, Chris Traynor,
                        Matthew Cross, and Davide Gentile
 
Dropped-D Tuning (DADGBE)
 
INTRO
   pm..........................................
E ----------------------------------------------------
B ----------------------------------------------------
G --777777777777777777777777777777777777777777--------
D --777777777777777777777777777777777777777777--------
A --555555555555555555555555555555555555555555--------
D ----------------------------------------------------
 
PREVERSE
E ----------------------------------------------------
B ----------------------------------------------------
G ----------------------------------------------------
D ----------------------------------------------------
A --0----6----0-----3----6--3-------------------------
D --0----6----0-----3----6--3-------------------------
 
VERSE
  pm...............................   *harmonics
E |---------------------------------|------------------
B |---------------------------------|------------------
G |.-------------------------------.|------*5----------
D |.-------------------------------.|----*5------------
A |---------------------------------|--*5--------------
D |--0-0-0-6-6-6-0-0-0-3-3-6-6-3-3--|------------------
                                              
CHORUS                pm................
E |-----------------|-----------------------------------
B |-----------------|-----------------------------------
G |.---------------.|-----------------------------------
D |.---------------.|-----------------------------------
A |--5-5---3-3-4-3--|--0---0---0---0---0----------------
D |--0-0---3-3-4-3--|--0---0---0---0---0----------------
 
BRIDGE 1           *harmonics
E ----------------------------------------------------
B ----------------------------------------------------
G ---------------------*5-----------------------------
D -------------------*5-------------------------------
A --0---0---0---0--*5---------------------------------
D --0---0---0---0-------------------------------------
 
BRIDGE 2
E --------------------------------------------------------------------
B --------------------------------------------------------------------
G -7-7-7-7-7-7-7-7-7\3-3-3-3-3/4-4-4-4-4\3-3-3-3-3/4-4-4-4-4----------
D --------------------------------------------------------------------
A -5-5-5-5-5-5-5-5-5\1-1-1-1-1/2-2-2-2-2\1-1-1-1-1/2-2-2-2-2----------
D --------------------------------------------------------------------
            
Submit corrections

comments powered by Disqus
↑ Back to top | Orange 9mm Tabs for Pissed. Lyrics for acoustic guitar and electric guitar. Tablatures and chords are parodies/interpretations of the original songs. You may use it for private study, scholarship, research or language learning purposes only