» » »

Orange 9mm, Fire In The Hole Tabs (ver.2)

Artists:  A B C D E F G H I J K L M N O P Q R S T U V W X Y Z # 

Fire In The Hole Tabs (ver.2)

Orange 9mm Tabs
Rating:
0/5 (0 votes)
Fire In The Hole lessons Tabs too difficult? Try these video lessons and learn fast
                Fire in the Hole -by Orange 9mm

This is a really cool song by these guys off TRAGIC and I didnt see 
any tabs of it, so here's my best shot.


(^=bend //=slide)

Opening/ Main Riff

   D    A  Ab  G     C               D    A  Ab  G     C                                  
e-----------------------------------------------------------------------
b-----------------------------------------------------------------------
g--7^---------------5--5--5--5--//---7^---------------5--5--5--5--//---
D--7^---7---6---5---5--5--5--5--//---7^---7---6---5---5--5--5--5--//---
A--5^---7---6---5---3--3--3--3--//---5^---7---6---5---3--3--3--3--//---
E-------5---4---3-------------------------5---4---3---------------- ect.


Bridge ("You'll never live it down...")

          D    D    D    D      
e-----------------------------------------
b-----------------------------------------
g---------7----7----7----7----------------
D---------7----7----7----7----------------
A---------5----5----5----5----------------
E-----------------------------------------        ect.



That's basically it, except for the lead which you can improvise 
yourself (use a lot of big bends and go nuts).  Email any additions, 
comments, corrections, insults or any other feedback about this tab
            
Submit corrections

comments powered by Disqus
↑ Back to top | Orange 9mm Tabs for Fire In The Hole. Lyrics for acoustic guitar and electric guitar. Tablatures and chords are parodies/interpretations of the original songs. You may use it for private study, scholarship, research or language learning purposes only