» » »

Optimus Rhyme, Fuzzy Dice Tabs (ver.2)

Artists:  A B C D E F G H I J K L M N O P Q R S T U V W X Y Z # 

Fuzzy Dice Tabs (ver.2)

Optimus Rhyme Tabs
 Rating:
4/5 (4 votes)
Fuzzy Dice lessons Tabs too difficult? Try these video lessons and learn fast
1
                -----------------------------------------------------------------------------
                FUZZY DICE - Optimus Rhyme - Optimus Rhyme
-----------------------------------------------------------------------------

Tuning: EADGBe

Intro/Chorus:
Riff 1:
e|--------------------10--11-10-8-10-8------------|
B|-8-10-11--8-10-11--------------------11---10h11-|
G|------------------7---------------------7-------|
D|------------------------------------------------|
A|------------------------------------------------|
E|------------------------------------------------| x2

e|------------------------11-10-8-----------------|
B|-8-10-11----------------------------------10h11-|
G|----------------------------------------7-------|
D|------------------------------------------------|
A|------------------------------------------------|
E|------------------------------------------------| x2

Riff 1 x2


Verse:
Verse Riff 1 (with some kind of overdrive/sustain/sythesiser effect, 
I just tremolo pick it):
e|------------------------------|-------------------------------------|
B|-8--/10-/11--/13--\10-/11--\8-|-6/8--/10-/11--/13---13/11--/15--\11-|
G|------------------------------|-------------------------------------|
D|------------------------------|-------------------------------------|
A|------------------------------|-------------------------------------|
E|------------------------------|-------------------------------------| x2.4*
*The third one ends nearly halfway through, at the second '11' ("those f**kers, always 
leavin' lava on my floor mats")

Verse Riff 2:
e|----------------------------------------------|
B|-8--10--10/11------------8--10--10/11---------|
G|---------------7-----------------------7------|
D|------------------5-----------------------5-5-|
A|----------------------------------------------|
E|----------------------------------------------| x2

Then Verse Riff 1 comes in at the first '10' and ends halfway through.


Chorus 2:
same as before


Verse 2:
Verse Riff 1 x2
Verse Riff 2 x2
Verse Riff 1 x0.5 


Bridge:
Brigde Riff 1:
e|------------------------------------------------|
B|-------7--6--------6----------------------------|
G|-6--8--------8--6--------6--8--6--5--6--5-------|
D|----------------------8--------------------6----|
A|----------------------------------------------8-|
E|------------------------------------------------| x4

Bridge Riff 2:
e|-----------------------|
B|------7--6/18--6/18~~--|
G|-6--8------------------|
D|-----------------------|
A|-----------------------|
E|-----------------------| x4

The song then ends with Bridge Riff 1 (x8), and finishes on:
e|-----------|
B|-----------|
G|-6--5------|
D|------6--8-|
A|-----------|
E|-----------|


************************************

| /   slide up
| \   slide down
| h   hammer-on
| p   pull-off
| ~   vibrato
| +   harmonic
| x   Mute note
| b   Bend
| pb  Pre-bend
| br  Bend release
| pbr Pre-bend release
| brb Bend release bend

************************************
            
Submit corrections

comments powered by Disqus
↑ Back to top | Optimus Rhyme Tabs for Fuzzy Dice. Lyrics for acoustic guitar and electric guitar. 1 Tablatures and chords are parodies/interpretations of the original songs. You may use it for private study, scholarship, research or language learning purposes only