» » »

Opm, Fish Out Of Water Tabs (ver.1)

Artists:  A B C D E F G H I J K L M N O P Q R S T U V W X Y Z # 

Fish Out Of Water Tabs (ver.1)

Opm Tabs
Rating:
4/5 (2 votes)
Fish Out Of Water lessons Tabs too difficult? Try these video lessons and learn fast
                ARTIST : OPM
ALBUM : MENACE TO SOBRIETY
TRACK :14
SONG : FISH OUT OF WATER
STANDARD TUNING (eBGDAE)

INTRO RIFF/VERSE   (CLEAN)
|----------------------|                          [-------------------------]
|----------------------|                          [-------------------------]
|-----------2----------|                          [-------------------------] 
|-------2-3---2-2-2/5--|   OR(basically the same) [-------------------------]
|---2-3----------------|                          [---2-3-7-8-12-7-7-7/10---]
|-3--------------------|                          [-2-----------------------] 

PRECHORUS 1    (BY NOW.........)  (CLEAN)
|-----------------------------------|
|-----------------------------------|
|-----------------3-3-3-5-5-5-5-5---|
|-5-5-5-3-3-3-3-3-3-3-3-5-5-5-5-5---|
|-5-5-5-3-3-3-3-3-1-1-1-3-3-3-3-3---|
|-3-3-3-1-1-1-1-1-------------------|
  ^ ^ ^ ^ ^ ^ ^ ^ ^ ^ ^ ^ ^ ^ ^ ^  = PM

PRECHORUS 2    (MARCO POLO.....)  
|-----------------------------------------6-6-|
|--8--8--8--8--6--6--6--6--8--8--8--8-6---6-6-|
|--7--7--7--7--5--5--5--5--7--7--7--7-5---5-5-|
|--5--5--5--5--3--3--3--3--5--5--5--5-3---5-5-|
|-----------------------------------------3-3-|
|---------------------------------------------|

CHORUS  (DISTORTION)
|---------------------------------|
|-----------------6-6-6-6---------|
|---------5-5-5-5-5-5-5-5-5-5-5---|
|-5-5-5-5-5-5-5-5-3-3-3-3-5-5-5-3-|                    5\
|-5-5-5-5-3-3-3-3---------3-3-3-3-|   LAST TIME END ON 5\
|-3-3-3-3-----------------------1-|                    3\


BREAK  (DURING MARCO POLO SCRATCHING)  (DISTORTION)
|-------|
|-------|
|-------|
|--5\---|
|--5\---|
|--3\---|


ORDER :

INTRO RIFF  X1
VERSE  X4
PRECHORUS 1 X4
PRECHORUS 2 X1
CHORUS  X4
INTRO RIFF  X1
VERSE  X4
PRECHORUS 1 X4
PRECHORUS 2 X1
CHORUS  X4
BREAK  X4
VERSE  X2
VERSE (W/DISTORTION)  X3
CHORUS  X8
END ON : D|--5\--|D
         A|--5\--|A
         E|--3\--|E
P.S  Please Rate This.  thanks
            

comments powered by Disqus
↑ Back to top | Opm Tabs for Fish Out Of Water. Lyrics for acoustic guitar and electric guitar. Tablatures and chords are parodies/interpretations of the original songs. You may use it for private study, scholarship, research or language learning purposes only