» » »

Operation Ivy, Lightning Crashes Bass tabs (ver.1)

Artists:  A B C D E F G H I J K L M N O P Q R S T U V W X Y Z # 

Lightning Crashes Bass tabs (ver.1)

Operation Ivy Tabs
 Rating:
4/5 (4 votes)
Lightning Crashes lessons Tabs too difficult? Try these video lessons and learn fast
                play GDAE . . . when the vocals go "her intentions fall to the floor"
slide in from the 12th to 2 on the E string...play it out is to make it build in 
so start out SOFT and play wide open at the end rhw 2nd time around . . .start out clean with 
tone low and end up with deep wide open vol at the end

  verse - follow the guitar changes here play 4 X after 2nd time play by guitarest

|-----------------------------------------------|
|-----------------------------------------------|
|----------2-2--------------------2-2-----------|
|12\2-0-0--------2-2-2-2--2-0-0---------2-2-2-2-|


 chorus      These changes are right on  with the vocals and are the same notes as the 
diff* rhythm play X 2

|---------------------------------|
|---------------------------------|
|--------22--------------22-------|
|-00----------2-2-00----------2-2-|


"solo" play in time with drummers kick up the volume at the | before the 0 and play 

|----------------------------|----------------|
|----------------------------|----------------|
|----------------------------|------2-2-------|
|-4--2----4--2---4--2---4--2-|-0-0-------2--4-|


NO SONG IS EVER RIGHT SO MAKE CHANGS FOR THE BETTER AND LIKE MY KNOW WHAT YOU DID SO I 
TRY IT THANKS  ~K~
            
Submit corrections

comments powered by Disqus
↑ Back to top | Operation Ivy Bass for Lightning Crashes. Lyrics for acoustic guitar and electric guitar. Tablatures and chords are parodies/interpretations of the original songs. You may use it for private study, scholarship, research or language learning purposes only