» » »

Operation Ivy, Knowledge Good Tabs (ver.1)

Artists:  A B C D E F G H I J K L M N O P Q R S T U V W X Y Z # 

Knowledge Good Tabs (ver.1)

Operation Ivy Tabs
 Rating:
4/5 (4 votes)
Knowledge Good lessons Tabs too difficult? Try these video lessons and learn fast
1
                OPERATION IVY-KNOWLDEDGE

Tuning: Standard
/=Slide up
\=Slide down
P.m.=Palm mute
: =Let ring
~=Vibrato




INTRO
e|-----------------------------------------------|
B|-----------------------------------------------|
G|--5-5-5-5-5--3-3-3-3-3-------------------------|
D|--5-5-5-5-5--3-3-3-3-3--3-3-3-3-3--------------|
A|--3-3-3-3-3--1-1-1-1-1--3-3-3-3-3--------------|
E|------------------------1-1-1-1-1--------------|

 |________________P.m.___________________________|

CHORUS
e|-----------------------------------------------|
B|-----------------------------------------------|
G|--5-5-5-5-5--3-3-3-3-3-------------------------|
D|--5-5-5-5-5--3-3-3-3-3--3-3-3-3-3--------------|
A|--3-3-3-3-3--1-1-1-1-1--3-3-3-3-3--------------|
E|------------------------1-1-1-1-1--------------|

VERSE
e|-----------------------------------------------|
B|-----------------------------------------------|
G|--5-5-5-5-5--3-3-3-3-3-------------------------|
D|--5-5-5-5-5--3-3-3-3-3--3-3-3-3-3--------------|
A|--3-3-3-3-3--1-1-1-1-1--3-3-3-3-3--------------|
E|------------------------1-1-1-1-1--------------|

 |________________P.m.___________________________|

SOLO AFTER 2nd CHORUS
e|-----------------------------------------------|
B|-----------------------------------------------|
G|-----------------------------------------------|
D|--3-2-0--------3-2-0--------1-1----------------|
A|---------3-3-3--------3-3-3------1-1-----------|
E|------------------------------------------1----|

e|-----------------------------------------------|
B|-----------------------------------------------|
G|-----------------------------------------------|
D|--3-2-0--------3-2-0--------1-1----------------|
A|---------3-3-3--------3-3-3------1-1-----------|
E|------------------------------------------3----|

2ND VERSE
e|-----------------------------------------------|
B|-----------------------------------------------|
G|--5-5-5-5-5--3-3-3-3-3-------------------------|
D|--5-5-5-5-5--3-3-3-3-3--3-3-3-3-3--------------|
A|--3-3-3-3-3--1-1-1-1-1--3-3-3-3-3--------------|
E|------------------------1-1-1-1-1--------------|

 |__P.m._____|

SOLO AFTER 2ND VERSE (GUITAR 1)
e|-----------------------------------------------|
B|-----------------------------------------------|
G|-----------------------------------------------|
D|--3/2-0--------3/2-0--------1-1----------------|
A|---------3-3-3--------3-3-3------1-1-----------|
E|------------------------------------------1----|

e|-----------------------------------------------|
B|-----------------------------------------------|
G|-----------------------------------------------|
D|--3/2-0--------3/2-0--------1-1----------------|
A|---------3-3-3--------3-3-3------1-1-----------|
E|------------------------------------------3----|


SOLO AFTER 2ND VERSE (GUITAR 2)(PLAY AT THE SAME TIME AS GUITAR 1)
e|-----------------------------------------------|
B|-2/8888888888/666------------------------------|
G|------------------5555555----------------------|
D|-----------------------------------------------|
A|-----------------------------------------------|
E|-----------------------------------------------|

if you listen to the song you can hear the second guitar...
even though lint is the only guitar


OUTRO
e|----------------------|
B|----------------------|
G|--5--5--5—-5--5~~~~~~~|
D|--5--5--5--5&#8212;-5~~~~~~~|   <-slow vibrato
A|--3--3--3--3&#8212;-3~~~~~~~|
E|----------------------| 
1.intro
2.chorus
3.verse
4.chorus
5.solo
6.2nd verse
7.2nd solo(guitars 1 and 2)
8.verse
9.chorus
10.outro
            
Submit corrections

comments powered by Disqus
↑ Back to top | Operation Ivy Tabs for Knowledge Good. Lyrics for acoustic guitar and electric guitar. 1 Tablatures and chords are parodies/interpretations of the original songs. You may use it for private study, scholarship, research or language learning purposes only