» » »

Kill Me Again Tabs (ver.1)

Artists:  A B C D E F G H I J K L M N O P Q R S T U V W X Y Z # 

Kill Me Again Tabs (ver.1)

Oomph!
Rating:
0/5 (0 votes)

Hard to play? Try these video lessons and learn fast.
                Drop A


Intro/Chorus
B|----------------------------------------------------------------------|
F|----------------------------------------------------------------------|
D|--------------------------------------------------7-7-7-7-7-7-7-7-----|
A|--2-2-2-2-2-2-2-2-3-3-3-3-3-3-3-3-5-5-5-5-5-5-5-5-7-7-7-7-7-7-7-7-----|x2
E|--2-2-2-2-2-2-2-2-3-3-3-3-3-3-3-3-5-5-5-5-5-5-5-5-5-5-5-5-5-5-5-5-----|
A|--2-2-2-2-2-2-2-2-3-3-3-3-3-3-3-3-5-5-5-5-5-5-5-5---------------------|

B|------------------------------------------------------------------------|
F|------------------------------------------------------------------------|
D|---------------------------101010---------------------------------------|
A|--2-2-2-2-3-3-3-3-4-4-4-5--8-8-8---2-2-2-2-3-3-3-3-4-4-4-5--------------|
E|--2-2-2-2-3-3-3-3-4-4-4-5----------2-2-2-2-3-3-3-3-4-4-4-5--------------|
A|--2-2-2-2-3-3-3-3-4-4-4-5----------2-2-2-2-3-3-3-3-4-4-4-5--------------|

Verse
B|------------------------------------------------------------------------|
F|------------------------------------------------------------------------|
D|------------------------------------------------------------------------|
A|-0-2-------2-3-2--0-2------2-3-3--0-2------2-3-2--0-2-----2-3-2---------|
E|-0-2-------2-3-2--0-2------2-3-3--0-2------2-3-2--0-2-----2-3-2---------|
A|-0-2-------2-3-2--0-2------2-3-3--0-2------2-3-2--0-2-----2-3-2---------|

B|----------------------------------------------------------------------|
F|----------------------------------------------------------------------|
D|----------------------------------------------------------------------|
A|-0-2--0-2--0-2--0-2------2-3-2--0-2--0-2--0-2--0-2------2-3-2---------|
E|-0-2--0-2--0-2--0-2------2-3-2--0-2--0-2--0-2--0-2------2-3-2---------|
A|-0-2--0-2--0-2--0-2------2-3-2--0-2--0-2--0-2--0-2------2-3-2---------|

B|----------------------------------------------------------------------|
F|----------------------------------------------------------------------|
D|----------------------------------------------------------------------|
A|-0-2--0-2--0-2--0-2------2-3-2--0-2--0-2--0-2-------------0-0---------|
E|-0-2--0-2--0-2--0-2------2-3-2--0-2--0-2--0-2-------------0-0---------|
A|-0-2--0-2--0-2--0-2------2-3-2--0-2--0-2--0-2-------------0-0---------|

Chorus
B|-------------------------------------------------------------------|
F|-------------------------------------------------------------------|
D|--------------------------------------------------7-7-7-7-7-7-7-7--|
A|--2-2-2-2-2-2-2-2-3-3-3-3-3-3-3-3-5-5-5-5-5-5-5-5-7-7-7-7-7-7-7-7--|x2
E|--2-2-2-2-2-2-2-2-3-3-3-3-3-3-3-3-5-5-5-5-5-5-5-5-5-5-5-5-5-5-5-5--|
A|--2-2-2-2-2-2-2-2-3-3-3-3-3-3-3-3-5-5-5-5-5-5-5-5------------------|

B|------------------------------------------------------------------------|
F|------------------------------------------------------------------------|
D|---------------------------101010----------------------------101010-----|
A|--2-2-2-2-3-3-3-3-4-4-4-5--8-8-8---2-2-2-2-3-3-3-3-4-4-4-5---8-8-8------|
E|--2-2-2-2-3-3-3-3-4-4-4-5----------2-2-2-2-3-3-3-3-4-4-4-5--------------|
A|--2-2-2-2-3-3-3-3-4-4-4-5----------2-2-2-2-3-3-3-3-4-4-4-5--------------|

B|------------------------------------------------------------------------|
F|------------------------------------------------------------------------|
D|---------------------------101010---------------------------------------|
A|--2-2-2-2-3-3-3-3-4-4-4-5--8-8-8---2-2-2-2-3-3-3-3-4-4-4-5--------------|
E|--2-2-2-2-3-3-3-3-4-4-4-5----------2-2-2-2-3-3-3-3-4-4-4-5--------------|
A|--2-2-2-2-3-3-3-3-4-4-4-5----------2-2-2-2-3-3-3-3-4-4-4-5--------------|

Verse
B|------------------------------------------------------------------------|
F|------------------------------------------------------------------------|
D|------------------------------------------------------------------------|
A|-0-2-------2-3-2--0-2------2-3-3--0-2------2-3-2--0-2-----2-3-2---------|
E|-0-2-------2-3-2--0-2------2-3-3--0-2------2-3-2--0-2-----2-3-2---------|
A|-0-2-------2-3-2--0-2------2-3-3--0-2------2-3-2--0-2-----2-3-2---------|

B|----------------------------------------------------------------------|
F|----------------------------------------------------------------------|
D|----------------------------------------------------------------------|
A|-0-2--0-2--0-2--0-2------2-3-2--0-2--0-2--0-2--0-2------2-3-2---------|
E|-0-2--0-2--0-2--0-2------2-3-2--0-2--0-2--0-2--0-2------2-3-2---------|
A|-0-2--0-2--0-2--0-2------2-3-2--0-2--0-2--0-2--0-2------2-3-2---------|

B|----------------------------------------------------------------------|
F|----------------------------------------------------------------------|
D|----------------------------------------------------------------------|
A|-0-2--0-2--0-2--0-2------2-3-2--0-2--0-2--0-2-----------0-0-----------|
E|-0-2--0-2--0-2--0-2------2-3-2--0-2--0-2--0-2-----------0-0-----------|
A|-0-2--0-2--0-2--0-2------2-3-2--0-2--0-2--0-2-----------0-0-----------|

Chorus
B|-------------------------------------------------------------------|
F|-------------------------------------------------------------------|
D|--------------------------------------------------7-7-7-7-7-7-7-7--|
A|--2-2-2-2-2-2-2-2-3-3-3-3-3-3-3-3-5-5-5-5-5-5-5-5-7-7-7-7-7-7-7-7--|x2
E|--2-2-2-2-2-2-2-2-3-3-3-3-3-3-3-3-5-5-5-5-5-5-5-5-5-5-5-5-5-5-5-5--|
A|--2-2-2-2-2-2-2-2-3-3-3-3-3-3-3-3-5-5-5-5-5-5-5-5------------------|

B|------------------------------------------------------------------------|
F|------------------------------------------------------------------------|
D|---------------------------101010----------------------------101010-----|
A|--2-2-2-2-3-3-3-3-4-4-4-5--8-8-8---2-2-2-2-3-3-3-3-4-4-4-5---8-8-8------|
E|--2-2-2-2-3-3-3-3-4-4-4-5----------2-2-2-2-3-3-3-3-4-4-4-5--------------|
A|--2-2-2-2-3-3-3-3-4-4-4-5----------2-2-2-2-3-3-3-3-4-4-4-5--------------|

B|------------------------------------------------------------------------|
F|------------------------------------------------------------------------|
D|---------------------------101010---------------------------------------|
A|--2-2-2-2-3-3-3-3-4-4-4-5--8-8-8---2-2-2-2-3-3-3-3-4-4-4-5--------------|
E|--2-2-2-2-3-3-3-3-4-4-4-5----------2-2-2-2-3-3-3-3-4-4-4-5--------------|
A|--2-2-2-2-3-3-3-3-4-4-4-5----------2-2-2-2-3-3-3-3-4-4-4-5--------------|

Chorus
B|-------------------------------------------------------------------|
F|-------------------------------------------------------------------|
D|--------------------------------------------------7-7-7-7-7-7-7-7--|
A|--2-2-2-2-2-2-2-2-3-3-3-3-3-3-3-3-5-5-5-5-5-5-5-5-7-7-7-7-7-7-7-7--|x4
E|--2-2-2-2-2-2-2-2-3-3-3-3-3-3-3-3-5-5-5-5-5-5-5-5-5-5-5-5-5-5-5-5--|
A|--2-2-2-2-2-2-2-2-3-3-3-3-3-3-3-3-5-5-5-5-5-5-5-5------------------|

Outro:
B|----------------------------------------------------------------------|
F|----------------------------------------------------------------------|
D|----------------------------------------------------------------------|
A|-0-2--0-2--0-2--0-2------2-3-2--0-2--0-2--0-2--0-2------2-3-2---------|
E|-0-2--0-2--0-2--0-2------2-3-2--0-2--0-2--0-2--0-2------2-3-2---------|
A|-0-2--0-2--0-2--0-2------2-3-2--0-2--0-2--0-2--0-2------2-3-2---------|

B|----------------------------------------------------------------------|
F|----------------------------------------------------------------------|
D|----------------------------------------------------------------------|
A|-0-2--0-2--0-2--0-2------2-3-2--0-2--0-2--0-2-------------------------|
E|-0-2--0-2--0-2--0-2------2-3-2--0-2--0-2--0-2-------------------------|
A|-0-2--0-2--0-2--0-2------2-3-2--0-2--0-2--0-2-------------------------|
            
Hard to play? Try these video lessons and learn fast. | Correct




comments powered by Disqus
↑ Back to top | Tablatures and chords are parodies/interpretations of the original songs. You may use it for private study, scholarship, research or language learning purposes only