» » »

Oomph!, Kill Me Again Bass tabs (ver.1)

Artists:  A B C D E F G H I J K L M N O P Q R S T U V W X Y Z # 

Kill Me Again Bass tabs (ver.1)

Oomph! Tabs
 Rating:
4/5 (4 votes)
Kill Me Again lessons Tabs too difficult? Try these video lessons and learn fast
1
                
Intro/Chorus
D|----------------------------------------------------------------------|
A|----------------------------------------------------------------------|x2
E|--------------------------------------------------5-5-5-5-5-5-5-5-----|
A|--2-2-2-2-2-2-2-2-3-3-3-3-3-3-3-3-5-5-5-5-5-5-5-5---------------------|

D|------------------------------------------------------------------------|
A|---------------------------8-8-8----------------------------------------|
E|------------------------------------------------------------------------|
A|--2-2-2-2-3-3-3-3-4-4-4-5----------2-2-2-2-3-3-3-3-4-4-4-5--------------|

Verse

D|------------------------------------------------------------------------|
A|------------------------------------------------------------------------|
E|------------------------------------------------------------------------|
A|-0-2-------2-3-2--0-2------2-3-3--0-2------2-3-2--0-2-----2-3-2---------|


D|----------------------------------------------------------------------|
A|----------------------------------------------------------------------|
E|----------------------------------------------------------------------|
A|-0-2--0-2--0-2--0-2------2-3-2--0-2--0-2--0-2--0-2------2-3-2---------|


D|----------------------------------------------------------------------|
A|----------------------------------------------------------------------|
E|----------------------------------------------------------------------|
A|-0-2--0-2--0-2--0-2------2-3-2--0-2--0-2--0-2-------------0-0---------|

Chorus

D|-------------------------------------------------------------------|
A|-------------------------------------------------------------------|x2
E|--------------------------------------------------5-5-5-5-5-5-5-5--|
A|--2-2-2-2-2-2-2-2-3-3-3-3-3-3-3-3-5-5-5-5-5-5-5-5------------------|

D|------------------------------------------------------------------------|
A|---------------------------8-8-8-----------------------------8-8-8------|
E|------------------------------------------------------------------------|
A|--2-2-2-2-3-3-3-3-4-4-4-5----------2-2-2-2-3-3-3-3-4-4-4-5--------------|


D|------------------------------------------------------------------------|
A|---------------------------8-8-8----------------------------------------|
E|------------------------------------------------------------------------|
A|--2-2-2-2-3-3-3-3-4-4-4-5----------2-2-2-2-3-3-3-3-4-4-4-5--------------|

Verse

D|------------------------------------------------------------------------|
A|------------------------------------------------------------------------|
E|------------------------------------------------------------------------|
A|-0-2-------2-3-2--0-2------2-3-3--0-2------2-3-2--0-2-----2-3-2---------|

D|----------------------------------------------------------------------|
A|----------------------------------------------------------------------|
E|----------------------------------------------------------------------|
A|-0-2--0-2--0-2--0-2------2-3-2--0-2--0-2--0-2--0-2------2-3-2---------|

D|----------------------------------------------------------------------|
A|----------------------------------------------------------------------|
E|----------------------------------------------------------------------|
A|-0-2--0-2--0-2--0-2------2-3-2--0-2--0-2--0-2-----------0-0-----------|

Chorus
D|-------------------------------------------------------------------|
A|-------------------------------------------------------------------|x2
E|--------------------------------------------------5-5-5-5-5-5-5-5--|
A|--2-2-2-2-2-2-2-2-3-3-3-3-3-3-3-3-5-5-5-5-5-5-5-5------------------|

D|------------------------------------------------------------------------|
A|---------------------------8-8-8-----------------------------8-8-8------|
E|------------------------------------------------------------------------|
A|--2-2-2-2-3-3-3-3-4-4-4-5----------2-2-2-2-3-3-3-3-4-4-4-5--------------|

D|------------------------------------------------------------------------|
A|---------------------------8-8-8----------------------------------------|
E|------------------------------------------------------------------------|
A|--2-2-2-2-3-3-3-3-4-4-4-5----------2-2-2-2-3-3-3-3-4-4-4-5--------------|

Chorus:
D|-------------------------------------------------------------------|
A|-------------------------------------------------------------------|x4
E|--------------------------------------------------5-5-5-5-5-5-5-5--|
A|--2-2-2-2-2-2-2-2-3-3-3-3-3-3-3-3-5-5-5-5-5-5-5-5------------------|

Outro:
D|----------------------------------------------------------------------|
A|----------------------------------------------------------------------|
E|----------------------------------------------------------------------|
A|-0-2--0-2--0-2--0-2------2-3-2--0-2--0-2--0-2--0-2------2-3-2---------|

D|----------------------------------------------------------------------|
A|----------------------------------------------------------------------|
E|----------------------------------------------------------------------|
A|-0-2--0-2--0-2--0-2------2-3-2--0-2--0-2--0-2-------------------------|
            
Submit corrections

comments powered by Disqus
↑ Back to top | Oomph! Bass for Kill Me Again. Lyrics for acoustic guitar and electric guitar. 1 Tablatures and chords are parodies/interpretations of the original songs. You may use it for private study, scholarship, research or language learning purposes only