» » »

Oomph!, Die Schlinge Bass tabs (ver.1)

Artists:  A B C D E F G H I J K L M N O P Q R S T U V W X Y Z # 

Die Schlinge Bass tabs (ver.1)

Oomph! Tabs
 Rating:
4/5 (4 votes)
Die Schlinge lessons Tabs too difficult? Try these video lessons and learn fast
                Intro
F|-------------------------------------------------------------------------|
C|-------------------------------------------------------------------------|
G|-------------------------------------------------------------------------|
C|-7-7-7-7-7-7-7-7-7-7-7-7-5-5-5-5-5-5-5-5-5-5-5-5-3-3-3-3-3-3-3-3-3-3-3-3-|

F|-------------------------------------------------------------------------|
C|-------------------------------------------------------------------------|
G|-------------------------------------------------------------------------|
C|-2-2-2-2-2-2-2-2-2-2-2-2-------------------------------------------------|

Verse:
F|---------------------------------------------------------------|
C|---------------------------------------------------------------|
G|---------------------------------------------------------------|
C|-7---7---7---7---5---5---5---5---3---3---3---3---2---2---2---2-|

F|---------------------------------------------------------------|
C|---------------------------------------------------------------|
G|---------------------------------------------------------------|
C|-7---7---7---7---5---5---5---5---3---3---3---3---2---2---77-77-|

Chorus
F|-------------------------------------------------------------------------|
C|-------------------------------------------------------------------------|
G|-------------------------------------------------------------------------|
C|-7-7-7-7-7-7-7-7-7-7-7-7-5-5-5-5-5-5-5-5-5-5-5-5-3-3-3-3-3-3-3-3-3-3-3-3-|

F|-------------------------------------------------------------------------|
C|-------------------------------------------------------------------------|
G|-------------------------------------------------------------------------|
C|-2-2-2-2-2-2-2-2-2-2-2-2-------------------------------------------------|

Interlude:
F|-------------------------------------------------------------------------|
C|-------------------------------------------------------------------------|
G|--------8-8-8--------7-7-7--------8-8-8--------7-7-7---------------------|
C|-00-0-0-------00-0-0-------00-0-0-------00-0-0---------------------------|
pm... . .       .. . .       .. . .       .. . .

Verse:
F|---------------------------------------------------------------|
C|---------------------------------------------------------------|
G|---------------------------------------------------------------|
C|-7---7---7---7---5---5---5---5---3---3---3---3---2---2---2---2-|

F|---------------------------------------------------------------|
C|---------------------------------------------------------------|
G|---------------------------------------------------------------|
C|-7---7---7---7---5---5---5---5---3---3---3---3---2---2---77-77-|

Chorus x 2
F|-------------------------------------------------------------------------|
C|-------------------------------------------------------------------------|
G|-------------------------------------------------------------------------|
C|-7-7-7-7-7-7-7-7-7-7-7-7-5-5-5-5-5-5-5-5-5-5-5-5-3-3-3-3-3-3-3-3-3-3-3-3-|

F|-------------------------------------------------------------------------|
C|-------------------------------------------------------------------------|
G|-------------------------------------------------------------------------|
C|-2-2-2-2-2-2-2-2-2-2-2-2-------------------------------------------------|

Interlude:
F|-------------------------------------------------------------------------|
C|-------------------------------------------------------------------------|
G|--------8-8-8--------7-7-7--------8-8-8--------7-7-7---------------------|
C|-00-0-0-------00-0-0-------00-0-0-------00-0-0---------------------------|
pm... . .       .. . .       .. . .       .. . .

Bridge:
F|-------------------------------------------------------------------------|
C|-------------------------------------------------------------------------|
G|-------------------------------------------3-3-3-------------------------|
C|-0-0-0-0-0-0-3-3-3-3-3-3-7-7-7-7-7-7-7-7-7-------0-0-0-0-0-0-3-3-3-3-3-3-|

F|-------------------------------------------------------------------------|
C|-------------------------------------------------------------------------|
G|-------------------------------------------------------------------------|
C|-2-2-2-2-2-2-2-2-2-2-2-2-7777-x-x-x-7-7-7--------------------------------|

Chorus x 2
F|-------------------------------------------------------------------------|
C|-------------------------------------------------------------------------|
G|-------------------------------------------------------------------------|
C|-7-7-7-7-7-7-7-7-7-7-7-7-5-5-5-5-5-5-5-5-5-5-5-5-3-3-3-3-3-3-3-3-3-3-3-3-|

F|-------------------------------------------------------------------------|
C|-------------------------------------------------------------------------|
G|-------------------------------------------------------------------------|
C|-2-2-2-2-2-2-2-2-2-2-2-2-------------------------------------------------|

F|--------|
C|--------|
G|--------|
C|---7~---|
            
Submit corrections

comments powered by Disqus
↑ Back to top | Oomph! Bass for Die Schlinge. Lyrics for acoustic guitar and electric guitar. Tablatures and chords are parodies/interpretations of the original songs. You may use it for private study, scholarship, research or language learning purposes only