» » »

Oomph!, Die Schlinge Tabs (ver.1)

Artists:  A B C D E F G H I J K L M N O P Q R S T U V W X Y Z # 

Die Schlinge Tabs (ver.1)

Oomph! Tabs
 Rating:
4/5 (4 votes)
Die Schlinge lessons Tabs too difficult? Try these video lessons and learn fast
1
                Intro:

guitar one
d|-------------------------------------------------------------------------|
A|-------------------------------------------------------------------------|
F|-------------------------------------------------------------------------|
C|-7-7-7-7-7-7-7-7-7-7-7-7-5-5-5-5-5-5-5-5-5-5-5-5-3-3-3-3-3-3-3-3-3-3-3-3-|
G|-7-7-7-7-7-7-7-7-7-7-7-7-5-5-5-5-5-5-5-5-5-5-5-5-3-3-3-3-3-3-3-3-3-3-3-3-|
C|-7-7-7-7-7-7-7-7-7-7-7-7-5-5-5-5-5-5-5-5-5-5-5-5-3-3-3-3-3-3-3-3-3-3-3-3-|

d|--------------------------|
A|--------------------------|
F|--------------------------|
C|-2-2-2-2-2-2-2-2-2-2-2-2--|
G|-2-2-2-2-2-2-2-2-2-2-2-2--|
C|-2-2-2-2-2-2-2-2-2-2-2-2--|

Guitar two
d|--------------------------|
A|--------------------------|
F|--------------------------|
C|-/19-14~---7~/19--21--14--|
G|--------------------------|
C|--------------------------|

End of verse:
d|-----------|
A|-----------|
F|-----------|
C|-77-77--7\-|
G|-77-77--7\-|
C|-77-77--7\-|
p.m.. ..

chorus 
guitar one
d|-------------------------------------------------------------------------|
A|-------------------------------------------------------------------------|
F|-------------------------------------------------------------------------|
C|-7-7-7-7-7-7-7-7-7-7-7-7-5-5-5-5-5-5-5-5-5-5-5-5-3-3-3-3-3-3-3-3-3-3-3-3-|
G|-7-7-7-7-7-7-7-7-7-7-7-7-5-5-5-5-5-5-5-5-5-5-5-5-3-3-3-3-3-3-3-3-3-3-3-3-|
C|-7-7-7-7-7-7-7-7-7-7-7-7-5-5-5-5-5-5-5-5-5-5-5-5-3-3-3-3-3-3-3-3-3-3-3-3-|

d|--------------------------|
A|--------------------------|
F|--------------------------|
C|-2-2-2-2-2-2-2-2-2-2-2-2--|
G|-2-2-2-2-2-2-2-2-2-2-2-2--|
C|-2-2-2-2-2-2-2-2-2-2-2-2--|

Guitar two
d|--------------------------|
A|--------------------------|
F|--------------------------|
C|-/19-14~---7~/19--21--14--|
G|--------------------------|
C|--------------------------|

Interlude: 
guitar one
d|------------------------------------------------------------------------|
A|------------------------------------------------------------------------|
F|------------------------------------------------------------------------|
C|-00-0-0-101010-00-0-0-9-9-9-00-0-0-101010-00-0-0-9-9-9------------------|
G|-00-0-0-8-8-8--00-0-0-7-7-7-00-0-0-8-8-8--00-0-0-7-7-7------------------|
C|-00-0-0--------00-0-0-------00-0-0--------00-0-0------------------------|
pm... . .        .. . .       .. . .        .. . .

Guitar two
tremolo picking with wah
d|--------------------------|
A|--------------------------|
F|--14-----13---14----16----|
C|--x------x----x-----x-----|
G|--12-----11---12----14----|
C|--------------------------|

Verse:
d|-------------------------------------------------------------------|
A|-------------------------------------------------------------------|
F|-------------------------------------------------------------------|
C|-7---7---7---7---5---5---5---5---3---3---3---3---2---2---77-77-----|
G|-7---7---7---7---5---5---5---5---3---3---3---3---2---2---77-77-----|
C|-7---7---7---7---5---5---5---5---3---3---3---3---2---2---77-77-----|
p.m.                                                       .. ..

Chorus x2
guitar one
d|-------------------------------------------------------------------------|
A|-------------------------------------------------------------------------|
F|-------------------------------------------------------------------------|
C|-7-7-7-7-7-7-7-7-7-7-7-7-5-5-5-5-5-5-5-5-5-5-5-5-3-3-3-3-3-3-3-3-3-3-3-3-|
G|-7-7-7-7-7-7-7-7-7-7-7-7-5-5-5-5-5-5-5-5-5-5-5-5-3-3-3-3-3-3-3-3-3-3-3-3-|
C|-7-7-7-7-7-7-7-7-7-7-7-7-5-5-5-5-5-5-5-5-5-5-5-5-3-3-3-3-3-3-3-3-3-3-3-3-|

d|--------------------------|
A|--------------------------|
F|--------------------------|
C|-2-2-2-2-2-2-2-2-2-2-2-2--|
G|-2-2-2-2-2-2-2-2-2-2-2-2--|
C|-2-2-2-2-2-2-2-2-2-2-2-2--|

Guitar two
d|--------------------------|
A|--------------------------|
F|--------------------------|
C|-/19-14~---7~/19--21--14--|
G|--------------------------|
C|--------------------------|

Interlude: 
guitar one
d|------------------------------------------------------------------------|
A|------------------------------------------------------------------------|
F|------------------------------------------------------------------------|
C|-00-0-0-101010-00-0-0-9-9-9-00-0-0-101010-00-0-0-9-9-9------------------|
G|-00-0-0-8-8-8--00-0-0-7-7-7-00-0-0-8-8-8--00-0-0-7-7-7------------------|
C|-00-0-0--------00-0-0-------00-0-0--------00-0-0------------------------|
pm... . .        .. . .       .. . .        .. . .

Guitar two
tremolo picking with wah
d|--------------------------|
A|--------------------------|
F|--14-----13---14----16----|
C|--x------x----x-----x-----|
G|--12-----11---12----14----|
C|--------------------------|

Bridge:
guitar one
d|-------------------------------------------------------------------------|
A|-------------------------------------------------------------------------|
F|-------------------------------------------5-5-5-------------------------|
C|-0-0-0-0-0-0-3-3-3-3-3-3-7-7-7-7-7-7-7-7-7-5-5-5-0-0-0-0-0-0-3-3-3-3-3-3-|
G|-0-0-0-0-0-0-3-3-3-3-3-3-7-7-7-7-7-7-7-7-7-3-3-3-0-0-0-0-0-0-3-3-3-3-3-3-|
C|-0-0-0-0-0-0-3-3-3-3-3-3-7-7-7-7-7-7-7-7-7-------0-0-0-0-0-0-3-3-3-3-3-3-|

d|-----------------------------------------|
A|-----------------------------------------|
F|-----------------------------------------|
C|-2-2-2-2-2-2-2-2-2-2-2-2-7777-x-x-x-7777-|
G|-2-2-2-2-2-2-2-2-2-2-2-2-7777-x-x-x-7777-|
C|-2-2-2-2-2-2-2-2-2-2-2-2-7777-x-x-x-7777-|

Chorus x2
guitar one
d|-------------------------------------------------------------------------|
A|-------------------------------------------------------------------------|
F|-------------------------------------------------------------------------|
C|-7-7-7-7-7-7-7-7-7-7-7-7-5-5-5-5-5-5-5-5-5-5-5-5-3-3-3-3-3-3-3-3-3-3-3-3-|
G|-7-7-7-7-7-7-7-7-7-7-7-7-5-5-5-5-5-5-5-5-5-5-5-5-3-3-3-3-3-3-3-3-3-3-3-3-|
C|-7-7-7-7-7-7-7-7-7-7-7-7-5-5-5-5-5-5-5-5-5-5-5-5-3-3-3-3-3-3-3-3-3-3-3-3-|

d|--------------------------|
A|--------------------------|
F|--------------------------|
C|-2-2-2-2-2-2-2-2-2-2-2-2--|
G|-2-2-2-2-2-2-2-2-2-2-2-2--|
C|-2-2-2-2-2-2-2-2-2-2-2-2--|

Guitar two
d|--------------------------|
A|--------------------------|
F|--------------------------|
C|-/19-14~---7~/19--21--14--|
G|--------------------------|
C|--------------------------|

second time through, guitar two plays:

d|-----------------------------------------------------------------------|
A|-----------------------------------------------------------------------|
F|------------17-18-17---------------------------------------------------|
C|--14/19--19----------14~-14/19---15-14-12-14---------------------------|
G|---------------------------------------------15-14-12-14-12~-----------|
C|-----------------------------------------------------------------------|
            
Submit corrections

comments powered by Disqus
↑ Back to top | Oomph! Tabs for Die Schlinge. Lyrics for acoustic guitar and electric guitar. 1 Tablatures and chords are parodies/interpretations of the original songs. You may use it for private study, scholarship, research or language learning purposes only