» » »

Brennende Liebe Bass tabs (ver.1)

Artists:  A B C D E F G H I J K L M N O P Q R S T U V W X Y Z # 

Brennende Liebe Bass tabs (ver.1)

Oomph!
Rating:
0/5 (0 votes)

Hard to play? Try these video lessons and learn fast.
                verse:
|------------------------------------|
|------------------------------------|
|------------------------------------|x4
|-0-00-0---2-22-2---4-44-4--4-44-4---|

Chorus
|-------------------|
|-------------------|
|-------------------|x2
|-0~---2~---4~------|

verse:
|------------------------------------|
|------------------------------------|
|------------------------------------|x4
|-0-00-0---2-22-2---4-44-4--4-44-4---|

Chorus
|-------------------|
|-------------------|
|-------------------|x4
|-0~---2~---4~------|

Bridge:
|-------------------|
|-------------------|
|--2-2-2------------|x3
|---------4--5--7---|

|-------------------|
|-------------------|
|--2-2-2---------22-|
|---------4-4-4-----|
p.m.      . . .

Chorus
|-------------------|
|-------------------|
|-------------------|x4
|-0~---2~---4~------|
            
Hard to play? Try these video lessons and learn fast. | Correct




comments powered by Disqus
↑ Back to top | Tablatures and chords are parodies/interpretations of the original songs. You may use it for private study, scholarship, research or language learning purposes only