» » »

Oomph!, Augen Auf! Bass tabs (ver.2)

Artists:  A B C D E F G H I J K L M N O P Q R S T U V W X Y Z # 

Augen Auf! Bass tabs (ver.2)

Oomph! Tabs
Rating:
0/5 (0 votes)
Augen Auf! lessons Tabs too difficult? Try these video lessons and learn fast
                Augen Auf by Oomph, Bass tab


INTRO:                 

REST: 6 x (4/4 bars)

G|-----------------------|
D|-----------------------|
A|-4-4-----7-7-----------|  x3
E|-----5-5-----7-7-5-7-5-|

G|-----------------------|
D|-----------------------|
A|-4-4-----9-9------7-7--|
E|-----7-7-----7-7-------| 
      
G|----------------|----------------|
D|----------------|----------------|
A|----------------|----------------|
E|-5-5-5-5-5-5-5-5|-5-5-5-4-4-4-4-4|


VERSE:
G|----------------|----------------|----------------|----------------|
D|----------------|----------------|----------------|----------------|
A|-4-4-4-4-4-4-4-4|-4-4-4-4-4-4-6-7|----------------|----------------| x 5
E|----------------|----------------|-5-5-5-5-5-5-5-5|-5-5-5-4-4-4-4-4|

REST: 6 x (4/4 bars)

CHORUS:
G|-----------------------|
D|-----------------------|
A|-4-4-----7-7-----------|  x 3
E|-----5-5-----7-7-5-7-5-|

G|-----------------------|
D|-----------------------|
A|-4-4-----9-9------7-7--|
E|-----7-7-----7-7-------|


VERSE:
G|----------------|----------------|----------------|----------------|
D|----------------|----------------|----------------|----------------|
A|-4-4-4-4-4-4-4-4|-4-4-4-4-4-4-6-7|----------------|----------------| x 3
E|----------------|----------------|-5-5-5-5-5-5-5-5|-5-5-5-4-4-4-4-4|


REST: 6 x (4/4 bars)


CHORUS:
G|-----------------------|
D|-----------------------|
A|-4-4-----7-7-----------|  x 3
E|-----5-5-----7-7-5-7-5-|

G|-----------------------|
D|-----------------------|
A|-4-4-----9-9------7-7--|
E|-----7-7-----7-7-------|

G|-----------------------|
D|-----------------------|
A|-4-4-----7-7-----------|  x 3
E|-----5-5-----7-7-5-7-5-|

G|-----------------------|
D|-----------------------|
A|-4-4-----9-9------7-7--|
E|-----7-7-----7-7-------|


REST: 9 x (4/4 bars)


CHORUS:
G|-----------------------|
D|-----------------------|
A|-4-4-----7-7-----------|  x 3
E|-----5-5-----7-7-5-7-5-|

G|-----------------------|
D|-----------------------|
A|-4-4-----9-9------7-7--|
E|-----7-7-----7-7-------|

G|-----------------------|
D|-----------------------|
A|-4-4-----7-7-----------|  x 3
E|-----5-5-----7-7-5-7-5-|

G|-----------------------|
D|-----------------------|
A|-4-4-----9-9------7-7--|
E|-----7-7-----7-7-------|

Piano outro


SRSN
            
Submit corrections

comments powered by Disqus
↑ Back to top | Oomph! Bass for Augen Auf!. Lyrics for acoustic guitar and electric guitar. Tablatures and chords are parodies/interpretations of the original songs. You may use it for private study, scholarship, research or language learning purposes only