>
 >
Leaving The Citadel 1

Leaving The Citadel 1 Guitar Tabs

On The Last Day - Leaving The Citadel 1 chords, tabs, tablatures, lyrics

Guitar lessons | Add/correct | Request | Top 50 tabs Artists:  A B C D E F G H I J K L M N O P Q R S T U V W X Y Z 0-9

Leaving The Citadel 1 Guitar Tabs – On The Last Day

CD, Sheet music, Poster

Do you like Leaving The Citadel 1? Share with your friends now
TabsTabs v2

Tuning:drop d
 
(intro)GUITAR 1                                    
e|---------------------------------|  e|-----------------------------|
B|---------------------------------|  B|-----------------------------|
G|---------------------------------|  G|-----------------------------|
D|---44-66-77-66-44-22-44----------|x3D|--44-66-77-66-44-22-44-------|x3
A|---------------------------------|  A|-----------------------------|
d|---------------------------------|  d|-----------------------------|
     .. .. .. .. .. .. ..
  (intro)guitar 2   
e|------|     e|-------|     e|--------|
B|------|     B|-------|     B|--------|
G|------|     G|-------|     G|--------|          (all of that 2 times!)
D|--4---|     D|---7---|     D|---9----|
A|--4---|x20  A|---7---|x10  A|---9----|x10
d|--4---|     d|---7---|     d|---9----|

(verse)guitar 1 & 2
e|------------------------------------------|
B|------------------------------------------|
G|------------------------------------------|
D|-4444--44444---2222--2222222222-----------|
A|-4444--44444---2222--2222222222-----------|
d|-4444--44444---2222--2222222222-----------|
(verse)guitar 1 & 2
e|------------------------------------------------------|
B|------------------------------------------------------|
G|------------------------------------------------------|
D|--4444--------------44444-----------------------------|
A|--4444-444444444444-44444-444444444444----------------|
d|--4444-444444444444-44444-444444444444----------------|
         ............       ............
(verse)guitar 1 & 2
e|--------------------------------------------------|
B|--------------------------------------------------|
G|--------------------------------------------------|
D|-2222---------------------------------------------|
A|-2222-2222222222222222222222222222----------------|
d|-2222-2222222222222222222222222222----------------|
        ............................
(pre-chorus)guitar 1
e|------------------------------------------------------|
B|------------------------------------------------------|
G|------------------------------------------------------|
D|--4444--44444--2222--2222222222-----------------------|x2
A|--4444--44444--2222--2222222222-----------------------|
d|--4444--44444--2222--2222222222-----------------------|
(pre-chorus) guitar 2
e|------------|     e|-----------|     
B|------------|     B|-----------|     
G|-----11-----|     G|----9------|              (all that times 2)
D|------x-----|x32  D|----x------|x32  
A|------9-----|     A|----7------|
d|------------|     d|-----------|     
(chourus)guitar 1
e|------|     e|-------|     e|--------|
B|------|     B|-------|     B|--------|
G|------|     G|-------|     G|--------|          
D|--4---|     D|---7---|     D|---9----|
A|--4---|x20  A|---7---|x10  A|---9----|x10
d|--4---|     d|---7---|     d|---9----|
(chorus)guitar 1 cont...
e|------|     e|-------|     e|--------|
B|------|     B|-------|     B|--------|
G|------|     G|-------|     G|--------|          
D|--4---|     D|---0---|     D|---2----|
A|--4---|x20  A|---0---|x10  A|---2----|x10
d|--4---|     d|---0---|     d|---2----|
(chorus)guitar 2
e|--------|     e|---------|     e|----------|
B|--------|     B|---------|     B|----------|
G|--11----|     G|---14----|     G|---13-----|          
D|--x-----|     D|----x----|     D|----x-----|
A|--9-----|x20  A|---12----|x10  A|---11-----|x10
d|--------|     d|---------|     d|----------|
(chorus)guitar 2 cont...
e|--------|     e|---------|     e|----------|
B|--------|     B|---------|     B|----------|
G|--11----|     G|----7----|     G|----9-----|          
D|--x-----|     D|----x----|     D|----x-----|
A|--9-----|x20  A|----5----|x10  A|----7-----|x10
d|--------|     d|---------|     d|----------|

(intro)GUITAR 1                                    
e|---------------------------------|  e|-----------------------------|
B|---------------------------------|  B|-----------------------------|
G|---------------------------------|  G|-----------------------------|
D|---44-66-77-66-44-22-44----------|x3D|--44-66-77-66-44-22-44-------|x3
A|---------------------------------|  A|-----------------------------|
d|---------------------------------|  d|-----------------------------|
     .. .. .. .. .. .. ..
  (intro)guitar 2   
e|------|     e|-------|     e|--------|
B|------|     B|-------|     B|--------|
G|------|     G|-------|     G|--------|          (all of that 2 times!)
D|--4---|     D|---7---|     D|---9----|
A|--4---|x20  A|---7---|x10  A|---9----|x10
d|--4---|     d|---7---|     d|---9----|

(verse)guitar 1 & 2
e|------------------------------------------|
B|------------------------------------------|
G|------------------------------------------|
D|-4444--44444---2222--2222222222-----------|
A|-4444--44444---2222--2222222222-----------|
d|-4444--44444---2222--2222222222-----------|
(verse)guitar 1 & 2
e|------------------------------------------------------|
B|------------------------------------------------------|
G|------------------------------------------------------|
D|--4444--------------44444-----------------------------|
A|--4444-444444444444-44444-444444444444----------------|
d|--4444-444444444444-44444-444444444444----------------|
         ............       ............
(verse)guitar 1 & 2
e|--------------------------------------------------|
B|--------------------------------------------------|
G|--------------------------------------------------|
D|-2222---------------------------------------------|
A|-2222-2222222222222222222222222222----------------|
d|-2222-2222222222222222222222222222----------------|
        ............................
(pre-chorus)guitar 1
e|------------------------------------------------------|
B|------------------------------------------------------|
G|------------------------------------------------------|
D|--4444--44444--2222--2222222222-----------------------|x2
A|--4444--44444--2222--2222222222-----------------------|
d|--4444--44444--2222--2222222222-----------------------|
(pre-chorus) guitar 2
e|------------|     e|-----------|     
B|------------|     B|-----------|     
G|-----11-----|     G|----9------|              (all that times 2)
D|------x-----|x32  D|----x------|x32  
A|------9-----|     A|----7------|
d|------------|     d|-----------|     
(chourus)guitar 1
e|------|     e|-------|     e|--------|
B|------|     B|-------|     B|--------|
G|------|     G|-------|     G|--------|          
D|--4---|     D|---7---|     D|---9----|
A|--4---|x20  A|---7---|x10  A|---9----|x10
d|--4---|     d|---7---|     d|---9----|
(chorus)guitar 1 cont...
e|------|     e|-------|     e|--------|
B|------|     B|-------|     B|--------|
G|------|     G|-------|     G|--------|          
D|--4---|     D|---0---|     D|---2----|
A|--4---|x20  A|---0---|x10  A|---2----|x10
d|--4---|     d|---0---|     d|---2----|
(chorus)guitar 2
e|--------|     e|---------|     e|----------|
B|--------|     B|---------|     B|----------|
G|--11----|     G|---14----|     G|---13-----|          
D|--x-----|     D|----x----|     D|----x-----|
A|--9-----|x20  A|---12----|x10  A|---11-----|x10
d|--------|     d|---------|     d|----------|
(chorus)guitar 2 cont...
e|--------|     e|---------|     e|----------|
B|--------|     B|---------|     B|----------|
G|--11----|     G|----7----|     G|----9-----|          
D|--x-----|     D|----x----|     D|----x-----|
A|--9-----|x20  A|----5----|x10  A|----7-----|x10
d|--------|     d|---------|     d|----------|

(intro)GUITAR 1                                    
e|---------------------------------|  e|-----------------------------|
B|---------------------------------|  B|-----------------------------|
G|---------------------------------|  G|-----------------------------|
D|---44-66-77-66-44-22-44----------|x3D|--44-66-77-66-44-22-44-------|x3
A|---------------------------------|  A|-----------------------------|
d|---------------------------------|  d|-----------------------------|
     .. .. .. .. .. .. ..
  (intro)guitar 2   
e|------|     e|-------|     e|--------|
B|------|     B|-------|     B|--------|
G|------|     G|-------|     G|--------|          (all of that 2 times!)
D|--4---|     D|---7---|     D|---9----|
A|--4---|x20  A|---7---|x10  A|---9----|x10
d|--4---|     d|---7---|     d|---9----|
(outro)guitar 1 & 2
e|------|     e|-------|     e|--------|
B|------|     B|-------|     B|--------|
G|------|     G|-------|     G|--------|          
D|--4---|     D|---7---|     D|---9----|
A|--4---|x16  A|---7---|x8   A|---9----|x8
d|--4---|     d|---7---|     d|---9----|
(outro) guitar 1 & 2 cont...
e|------|     e|-------|     e|--------|
B|------|     B|-------|     B|--------|
G|------|     G|-------|     G|--------|          
D|--4---|     D|---0---|     D|---2----|
A|--4---|x16  A|---0---|x8   A|---2----|x8
d|--4---|     d|---0---|     d|---2----|
(outro)guitar 1
e|----------------------------------------------------------------------|
B|----------------------------------------------------------------------|
G|----------------------------------------------------------------------|
D|-----7-6-7-9-7-6-7---7-6-7-9-7-6-7---7-6-7-9-7-6-7---7-6-7-9-7-6-7----|x2
A|---9---------------9---------------7---------------9------------------|
d|----------------------------------------------------------------------|

(outro)guitar 2 
e|------|     e|-------|     e|--------|
B|------|     B|-------|     B|--------|
G|------|     G|-------|     G|--------|          
D|--4---|     D|---7---|     D|---9----|
A|--4---|x16  A|---7---|x8   A|---9----|x8
d|--4---|     d|---7---|     d|---9----|

(outro) guitar  2 
e|------|      e|-------------------|     e|-------------------|
B|------|      B|-------------------|     B|-------------------|
G|------|      G|-------------------|     G|-------------------|          
D|--4---|      D|-------------------|     D|-------------------|
A|--4---|x16   A|---0-0-000-0-0-000-|     A|---2-2-222-2-2-222-|
d|--4---|      d|---0-0-000-0-0-000-|     d|---2-2-222-2-2-222-|
(outro)guitar 1     . . ... . . ...            . . ... . . ...
e|--------------------------------------------------|
B|--------------------------------------------------|
G|--------------------------------------------------|
D|--11-9-11-14-12-11-12--11-9-11-14-12-11-12--------|
A|-9--------------------9---------------------------|
d|--------------------------------------------------|

(outro)guitar 2 
e|------|     e|-------|     e|--------|
B|------|     B|-------|     B|--------|
G|------|     G|-------|     G|--------|          
D|--4---|     D|---7---|     D|---9----|
A|--4---|x16  A|---7---|x8   A|---9----|x8
d|--4---|     d|---7---|     d|---9----|

(outro) guitar 2    (outro) gutiar 1 & 2
e|------|         e|-------------------|     e|-----------------|
B|------|         B|-------------------|     B|-----------------|
G|------|         G|-------------------|     G|-----------------|         
D|--4---|         D|-------------------|     D|-----------------|
A|--4---|x16      A|---0-0-000-0-0-000-|     A|-2-2-222-2-2-222-|
d|--4---|         d|---0-0-000-0-0-000-|     d|-2-2-222-2-2-222-|
                       . . ... . . ...          . . ... . . ...

| /  slide up
| \  slide down
| h  hammer-on
| p  pull-off
| ~  vibrato
| +  harmonic
| .  palm mute





Comments


Popular On The Last Day tabs & chords
Meaning In The Static Bass Tabs
Below One Hundred Tabs
Below One Hundred Intro Tabs
Leaving The Citadel Tabs
Meaning In The Static Tabs
Missing Frames Tabs
So Here Is Us, On The Raggedy Edge Tabs


Song lyrics



↑ Back to top | Tablatures and chords are parodies/interpretations of the original songs. You may use it for private study, scholarship, research or language learning purposes only
© 2014 AZChords.com Contact us | Privacy policy | DMCA | Add/correct tabs | Request tabs | Top 50 tabs