» » »

Onslaught, Killing Peace Tabs (ver.2)

Artists:  A B C D E F G H I J K L M N O P Q R S T U V W X Y Z # 

Killing Peace Tabs (ver.2)

Onslaught Tabs
 Rating:
4/5 (4 votes)
Killing Peace lessons Tabs too difficult? Try these video lessons and learn fast
                Onslaught

Killing Peace

Tune Down one step on D

Pretty easy, kickass song. I think its not too difficult
if you are a bit into Thrash-riffing. Do not know about the solo
the rythm, so I just tabbed the rythm for solo you can shred over
something over Dm.

Riff 1
D-------------------------|
A-------------------------|
F-------------------------|
C-2------2------2---2---2-|
G-2------2------2---2---2-|
D-0-0000-0-0000-0-0-0-0-0-|

Riff 2
D-----------------|
A-----------------|
F-----------------|
C-----------------|
G-----------------|
D-0-6-5-3-5-3-5-6-|

Riff 2a
D------------------|
A------------------|
F------------------|
C------------------|
G------------------|
D-0066553355335566-

Riff 3
D----------------------|
A----------------------|
F----------------------|
C----------------------|
G----------------------|
D-0000-88888-7777-5555-|

Riff 4
D---------------------|
A---------------------|
F---------------------|
C-2----8----7----5--3-|
G-2----8----7----5--3-|
D-0----6----5----3--1-|

Riff 5
D-----------------|
A-----------------|
F-----------------|
C-----------------|
G-----------------|
D-0-6-5-0-3-0-3-5-|

Riff 6
D----------------------------------------------|
A----------------------------------------------|
F----------------------------------------------|
C----------------------------------------------|
G----------------------------------------------|
D-0-0-0-0-0-0-0-0-0-0-0-0-0-0-0-0-5-6--5-6-5-3-|

Riff 7

D-----------------|
A-----------------|
F--------------9--|
C-2------------9--|
G-2------------7--|
D-0---------------|

Structure

Intro
Riff 1  x4

Verse 1
Riff 2  x8
Riff 3  x2
Riff 2  x2

Chorus 1
Riff 4  x2
Riff 1  x4
Riff 1  x4
Verse 2
Riff 2  x8
Riff 3  x2
Riff 2  x2

Chorus 2
Riff 4  x2
Riff 1  x4

Interlude
Riff 5  x8
Riff 6  x4
Riff 2a x4

Solo
Riff 2  x4 (might also be Riff 2a, not sure about that)
Riff 3  x2
Riff 2  x4 (might also be Riff 2a, not sure about that)
Riff 7  x2

Chorus 3
Riff 1  x4
Riff 4  x4
Riff 1  x4
            
Submit corrections

comments powered by Disqus
↑ Back to top | Onslaught Tabs for Killing Peace. Lyrics for acoustic guitar and electric guitar. Tablatures and chords are parodies/interpretations of the original songs. You may use it for private study, scholarship, research or language learning purposes only