» » »

One Way System, Waste Away Tabs (ver.1)

Artists:  A B C D E F G H I J K L M N O P Q R S T U V W X Y Z # 

Waste Away Tabs (ver.1)

One Way System Tabs
Rating:
0/5 (0 votes)
Waste Away lessons Tabs too difficult? Try these video lessons and learn fast
                Intro                                                           x3
E-----------------------------------------------------------------|
B-----------------------------------------------------------------|
G-5-5-5-5-5-5-5-5---------------------------------9-9-9-9-9-9-9-9-|
D-5-5-5-5-5-5-5-5-5-5-5-5-5-5-5-5-7-7-7-7-7-7-7-7-9-9-9-9-9-9-9-9-|
A-3-3-3-3-3-3-3-3-5-5-5-5-5-5-5-5-7-7-7-7-7-7-7-7-7-7-7-7-7-7-7-7-|
E-----------------3-3-3-3-3-3-3-3-5-5-5-5-5-5-5-5-----------------|
 [*************************palmute*******************************]

Verse                           x6
E---------------------------------|
B---------------------------------|
G-5-5-5-5---------9-9-9-9-9-9-9-9-|
D-5-5-5-5-5-5-7-7-9-9-9-9-9-9-9-9-|
A-3-3-3-3-5-5-7-7-7-7-7-7-7-7-7-7-|
E---------3-3-5-5-----------------|

Chorus         x4
E----------------|
B----------------|
G-12--9--7-7-7-7-|
D-12--9--7-7-7-7-|
A-10--7--5-5-5-5-|
E----------------|

Verse 2                         x6
E---------------------------------|
B---------------------------------|
G-5-5-5-5---------9-9-9-9-9-9-9-9-|
D-5-5-5-5-5-5-7-7-9-9-9-9-9-9-9-9-|
A-3-3-3-3-5-5-7-7-7-7-7-7-7-7-7-7-|
E---------3-3-5-5-----------------|

Chorus         x4
E----------------|
B----------------|
G-12--9--7-7-7-7-|
D-12--9--7-7-7-7-|
A-10--7--5-5-5-5-|
E----------------|

Bridge
E-----------------------------------------------------------------|--------|
B-----------------------------------------------------------------|--------|
G-5-5-5-5-5-5-5-5---------------------------------9-9-9-9-9-9-9-9-|-5------|
D-5-5-5-5-5-5-5-5-5-5-5-5-5-5-5-5-7-7-7-7-7-7-7-7-9-9-9-9-9-9-9-9-|-5------|
A-3-3-3-3-3-3-3-3-5-5-5-5-5-5-5-5-7-7-7-7-7-7-7-7-7-7-7-7-7-7-7-7-|-3------|
E-----------------3-3-3-3-3-3-3-3-5-5-5-5-5-5-5-5-----------------|--------|

E-----------------------------------------------------------------|
B-----------------------------------------------------------------|
G-5-5-5-5---------9-9-9-9-9-9-9-9-5-5-5-5---------9-9-9-9-9-9-9-9-|
D-5-5-5-5-5-5-5-5-9-9-9-9-9-9-9-9-5-5-5-5-5-5-5-5-9-9-9-9-9-9-9-9-|
A-3-3-3-3-5-5-5-5-7-7-7-7-7-7-7-7-3-3-3-3-5-5-5-5-7-7-7-7-7-7-7-7-|
E---------3-3-3-3-------------------------3-3-3-3-----------------|

Verse 3                         x6
E---------------------------------|
B---------------------------------|
G-5-5-5-5---------9-9-9-9-9-9-9-9-|
D-5-5-5-5-5-5-7-7-9-9-9-9-9-9-9-9-|
A-3-3-3-3-5-5-7-7-7-7-7-7-7-7-7-7-|
E---------3-3-5-5-----------------|

Chorus        x14
E----------------|
B----------------|
G-12--9--7-7-7-7-|
D-12--9--7-7-7-7-|
A-10--7--5-5-5-5-|
E----------------|

Outro          x6
E----------------|
B----------------|
G-12--9--7-7-7-7-|
D-12--9--7-7-7-7-|
A-10--7--5-5-5-5-|
E----------------|
         *******
         palmute
            
Submit corrections

comments powered by Disqus
↑ Back to top | One Way System Tabs for Waste Away. Lyrics for acoustic guitar and electric guitar. Tablatures and chords are parodies/interpretations of the original songs. You may use it for private study, scholarship, research or language learning purposes only