» » »

Waste Away Bass tabs (ver.1)

Artists:  A B C D E F G H I J K L M N O P Q R S T U V W X Y Z # 

Waste Away Bass tabs (ver.1)

One Way System
Rating:
0/5 (0 votes)

Tabs too difficult? Try these video lessons and learn fast.
                Intro                                                           x2
G-----------------------------------------------------------------|
D-----------------------------------------------------------------|
A-----------------------------------------------------------------|
E-----------------------------------------------------------------|

G-----------------------------------------------------------------|
D-----------------------------------------------------------------|
A-3-3-3-3-3-3-3-3---------------------------------7-7-7-7-7-7-7-7-|
E-----------------3-3-3-3-3-3-3-3-5-5-5-5-5-5-5-5-----------------|

Verse                           x6
G---------------------------------|
D---------------------------------|
A-3-3-3-3---------7-7-7-7-7-7-7-7-|
E---------3-3-5-5-----------------|

Chorus         x4
G----------------|
D----------------|
A-10--7--5-5-5-5-|
E----------------|

Verse 2                         x6
G---------------------------------|
D---------------------------------|
A-3-3-3-3---------7-7-7-7-7-7-7-7-|
E---------3-3-5-5-----------------|

Chorus         x4
G----------------|
D----------------|
A-10--7--5-5-5-5-|
E----------------|

Bridge
G-----------------------------------------------------------------|--------|
D-----------------------------------------------------------------|--------|
A-3-3-3-3-3-3-3-3---------------------------------7-7-7-7-7-7-7-7-|-3------|
E-----------------3-3-3-3-3-3-3-3-5-5-5-5-5-5-5-5-----------------|--------|

G-----------------------------------------------------------------|
D-----------------------------------------------------------------|
A-3-3-3-3---------7-7-7-7-7-7-7-7-3-3-3-3---------7-7-7-7-7-7-7-7-|
E---------3-3-3-3-------------------------3-3-3-3-----------------|

Verse 3                         x6
G---------------------------------|
D---------------------------------|
A-3-3-3-3---------7-7-7-7-7-7-7-7-|
E---------3-3-5-5-----------------|

Chorus        x14
G----------------|
D----------------|
A-10--7--5-5-5-5-|
E----------------|

Outro          x6
G----------------|
D----------4-5-6-|
A-10--7--5-------|
E----------------|
            
Tabs too difficult? Try these video lessons and learn fast.




comments powered by Disqus
↑ Back to top | Tablatures and chords are parodies/interpretations of the original songs. You may use it for private study, scholarship, research or language learning purposes only