» » »

One Way System, No Return Tabs (ver.1)

Artists:  A B C D E F G H I J K L M N O P Q R S T U V W X Y Z # 

No Return Tabs (ver.1)

One Way System Tabs
Rating:
0/5 (0 votes)
No Return lessons Tabs too difficult? Try these video lessons and learn fast
                Intro
E---------------|---------------|---------------|---------------|
B---------------|---------------|---------------|---------------|
G-12-11-9-9-9-9-|-12-11-9-9-9-9-|-12-11-9-9-9-9-|-12-11-9-9-9-9-|
D-12-11-9-9-9-9-|-12-11-9-9-9-9-|-12-11-9-9-9-9-|-12-11-9-9-9-9-|
A-10-9--7-7-7-7-|-10-9--7-7-7-7-|-10-9--7-7-7-7-|-10-9--7-7-7-7-|
E---------------|---------------|---------------|---------------|

E---------------|---------------|---------------|
B---------------|---------------|---------------|
G-12-11-9-9-9-9-|-12-11-9-9-9-9-|-12-11-9-9-9-9-|
D-12-11-9-9-9-9-|-12-11-9-9-9-9-|-12-11-9-9-9-9-|
A-10-9--7-7-7-7-|-10-9--7-7-7-7-|-10-9--7-7-7-7-|
E---------------|---------------|---------------|

Verse
E---------------|---------------|---------------|---------------|
B---------------|---------------|---------------|---------------|
G-12-11-9-9-9-9-|-12-11-9-9-9-9-|-12-11-9-9-9-9-|-12-11-9-9-9-9-|
D-12-11-9-9-9-9-|-12-11-9-9-9-9-|-12-11-9-9-9-9-|-12-11-9-9-9-9-|
A-10-9--7-7-7-7-|-10-9--7-7-7-7-|-10-9--7-7-7-7-|-10-9--7-7-7-7-|
E---------------|---------------|---------------|---------------|

Chorus                                                          x2
E-----------------------------------------------------------------|
B-----------------------------------------------------------------|
G-5-5-5-5-5-5-5-5-5-5-5-5-5-5-5-5---------------------------------|
D-5-5-5-5-5-5-5-5-5-5-5-5-5-5-5-5-7-7-7-7-7-7-7-7-7-7-7-7-7-7-7-7-|
A-3-3-3-3-3-3-3-3-3-3-3-3-3-3-3-3-7-7-7-7-7-7-7-7-7-7-7-7-7-7-7-7-|
E---------------------------------5-5-5-5-5-5-5-5-5-5-5-5-5-5-5-5-|

Verse 2
E---------------|---------------|---------------|---------------|
B---------------|---------------|---------------|---------------|
G-12-11-9-9-9-9-|-12-11-9-9-9-9-|-12-11-9-9-9-9-|-12-11-9-9-9-9-|
D-12-11-9-9-9-9-|-12-11-9-9-9-9-|-12-11-9-9-9-9-|-12-11-9-9-9-9-|
A-10-9--7-7-7-7-|-10-9--7-7-7-7-|-10-9--7-7-7-7-|-10-9--7-7-7-7-|
E---------------|---------------|---------------|---------------|

E---------------|---------------|---------------|
B---------------|---------------|---------------|
G-12-11-9-9-9-9-|-12-11-9-9-9-9-|-12-11-9-9-9-9-|
D-12-11-9-9-9-9-|-12-11-9-9-9-9-|-12-11-9-9-9-9-|
A-10-9--7-7-7-7-|-10-9--7-7-7-7-|-10-9--7-7-7-7-|
E---------------|---------------|---------------|

Chorus                                                          x2
E-----------------------------------------------------------------|
B-----------------------------------------------------------------|
G-5-5-5-5-5-5-5-5-5-5-5-5-5-5-5-5---------------------------------|
D-5-5-5-5-5-5-5-5-5-5-5-5-5-5-5-5-7-7-7-7-7-7-7-7-7-7-7-7-7-7-7-7-|
A-3-3-3-3-3-3-3-3-3-3-3-3-3-3-3-3-7-7-7-7-7-7-7-7-7-7-7-7-7-7-7-7-|
E---------------------------------5-5-5-5-5-5-5-5-5-5-5-5-5-5-5-5-|

Verse 3
E---------------|---------------|---------------|---------------|
B---------------|---------------|---------------|---------------|
G-12-11-9-9-9-9-|-12-11-9-9-9-9-|-12-11-9-9-9-9-|-12-11-9-9-9-9-|
D-12-11-9-9-9-9-|-12-11-9-9-9-9-|-12-11-9-9-9-9-|-12-11-9-9-9-9-|
A-10-9--7-7-7-7-|-10-9--7-7-7-7-|-10-9--7-7-7-7-|-10-9--7-7-7-7-|
E---------------|---------------|---------------|---------------|

E---------------|---------------|---------------|---------------|
B---------------|---------------|---------------|---------------|
G-12-11-9-9-9-9-|-12-11-9-9-9-9-|-12-11-9-9-9-9-|-12-11-9-9-9-9-|
D-12-11-9-9-9-9-|-12-11-9-9-9-9-|-12-11-9-9-9-9-|-12-11-9-9-9-9-|
A-10-9--7-7-7-7-|-10-9--7-7-7-7-|-10-9--7-7-7-7-|-10-9--7-7-7-7-|
E---------------|---------------|---------------|---------------|

Chorus                                                          x2
E-----------------------------------------------------------------|
B-----------------------------------------------------------------|
G-5-5-5-5-5-5-5-5-5-5-5-5-5-5-5-5---------------------------------|
D-5-5-5-5-5-5-5-5-5-5-5-5-5-5-5-5-7-7-7-7-7-7-7-7-7-7-7-7-7-7-7-7-|
A-3-3-3-3-3-3-3-3-3-3-3-3-3-3-3-3-7-7-7-7-7-7-7-7-7-7-7-7-7-7-7-7-|
E---------------------------------5-5-5-5-5-5-5-5-5-5-5-5-5-5-5-5-|
            
Submit corrections

comments powered by Disqus
↑ Back to top | One Way System Tabs for No Return. Lyrics for acoustic guitar and electric guitar. Tablatures and chords are parodies/interpretations of the original songs. You may use it for private study, scholarship, research or language learning purposes only