» » »

No Return Bass tabs (ver.1)

Artists:  A B C D E F G H I J K L M N O P Q R S T U V W X Y Z # 

No Return Bass tabs (ver.1)

One Way System
Rating:
0/5 (0 votes)

Hard to play? Try these video lessons and learn fast.
                Intro
G---------------|---------------|---------------|---------------|
D---------------|---------------|---------------|---------------|
A---------------|---------------|---------------|---------------|
E---------------|---------------|---------------|---------------|

G---------------|---------------|---------------|
D---------------|---------------|---------------|
A-10-9--7-7-7-7-|-10-9--7-7-7-7-|-10-9--7-7-7-7-|
E---------------|---------------|---------------|

Verse
G---------------|---------------|---------------|---------------|
D---------------|---------------|---------------|---------------|
A-10-9--7-7-7-7-|-10-9--7-7-7-7-|-10-9--7-7-7-7-|-10-9--7-7-7-7-|
E---------------|---------------|---------------|---------------|

Chorus                                                          x2
G-----------------------------------------------------------------|
D-----------------------------------------------------------------|
A-3-3-3-3-3-3-3-3-3-3-3-3-3-3-3-3---------------------------------|
E---------------------------------5-5-5-5-5-5-5-5-5-5-5-5-5-5-5-5-|

Verse 2
G---------------|---------------|---------------|---------------|
D---------------|---------------|---------------|---------------|
A-10-9--7-7-7-7-|-10-9--7-7-7-7-|-10-9--7-7-7-7-|-10-9--7-7-7-7-|
E---------------|---------------|---------------|---------------|

G---------------|---------------|---------------|
D---------------|---------------|---------------|
A-10-9--7-7-7-7-|-10-9--7-7-7-7-|-10-9--7-7-7-7-|
E---------------|---------------|---------------|

Chorus                                                          x2
G-----------------------------------------------------------------|
D-----------------------------------------------------------------|
A-3-3-3-3-3-3-3-3-3-3-3-3-3-3-3-3---------------------------------|
E---------------------------------5-5-5-5-5-5-5-5-5-5-5-5-5-5-5-5-|

Verse 3
G---------------|---------------|---------------|---------------|
D---------------|---------------|---------------|---------------|
A-10-9--7-7-7-7-|-10-9--7-7-7-7-|-10-9--7-7-7-7-|-10-9--7-7-7-7-|
E---------------|---------------|---------------|---------------|

G---------------|---------------|---------------|---------------|
D---------------|---------------|---------------|---------------|
A-10-9--7-7-7-7-|-10-9--7-7-7-7-|-10-9--7-7-7-7-|-10-9--7-7-7-7-|
E---------------|---------------|---------------|---------------|

Chorus                                                          x2
G-----------------------------------------------------------------|
D-----------------------------------------------------------------|
A-3-3-3-3-3-3-3-3-3-3-3-3-3-3-3-3---------------------------------|
E---------------------------------5-5-5-5-5-5-5-5-5-5-5-5-5-5-5-5-|
            
Hard to play? Try these video lessons and learn fast. | Correct




comments powered by Disqus
↑ Back to top | Tablatures and chords are parodies/interpretations of the original songs. You may use it for private study, scholarship, research or language learning purposes only