» » »

Onesidezero, Underground Tabs (ver.2)

Artists:  A B C D E F G H I J K L M N O P Q R S T U V W X Y Z # 

Underground Tabs (ver.2)

Onesidezero Tabs
Rating:
0/5 (0 votes)
Underground lessons Tabs too difficult? Try these video lessons and learn fast
                Artist- Onesidezero
Song- Underground

Verse (play first line once, and the second line the rest of the verse)
e|----------------------------------------------------|
b|-----1------1----1--/4-3----------------------------|
g|--------------------/5-5----------------------------|
d|-2-2-----2-----2----------------6-----6-----0-------|
a|-0-----0-----0-----------3/---3-----3-----0---------|
D|----------------------------3-----3-----0-----5-5-6-|

e|----------------------------------------------------|
b|-----1------1----1--/5-3----------------------------|
g|--------------------/5-5----------------------------|
d|---2-----2-----2---------3/-----6-----6-----0-------|
a|-0-----0-----0----------------3-----3-----0---------|
D|----------------------------3-----3-----0-----5-5-6-|

Verse- Guitar 2 (played with sustain and heavy vibrato)
e|-15-14-13-12------------|
b|-------------8-7-6-5----|
g|------------------------|
d|------------------------|
a|------------------------|
D|------------------------|

Following the verse, play this
e|-10b(12)-8/---------|
b|--------------------|
g|--------------------|
d|--------------------|
a|--------------------|
D|--------------------|

Prechorus (played along with the verse eventually)
e|-------------------------|
b|-------------------------|
g|-------------------------|
d|-3-3-3-3-3-3-2-2-2-2-2-2-|
a|-5-5-5-5-5-5-5-5-5-3-3-0-|
D|-------------------------|

Chorus- Guitar 1
e|-------------------------------------------------|
b|-------------------------------------------------|
g|-2-2-2-2-2-2-------------3-3-3-3-3-3-------------|
d|-2-2-2-2-2-2-0-0-0-0-0-0-3-3-3-3-3-3-5-5-5-5-5-5-|
a|-0-0-0-0-0-0-0-0-0-0-0-0-1-1-1-1-1-1-5-5-5-5-5-5-|
D|-------------0-0-0-0-0-0-------------5-5-5-5-5-5-|

Chorus- Guitar 2
e|--------------------------------|
b|-----5-3-5-----5-3-5-----5-3----|
g|-2-2-------2-2-------5-5----4-4-|
d|--------------------------------|
a|--------------------------------|
D|--------------------------------|

At the end of the chorus play this
e|--------------------|
b|-3h5-5-3------------|
g|-5---5-5-5-4--------|
d|---------x-x--------|
a|---------3-2--------|
D|--------------------|

Bridge (strumming not really shown, u get the idea)
e|-------------3-3-3-|
b|-6-6-6-5-5-5-5-5-5-|
g|-7-7-7-7-7-7-5-5-5-|
d|-0-0-0-0-0-0-5-5-5-|
a|-0-0-0-0-0-0-3-3-3-|
D|-0-0-0-0-0-0-------|

Solo (outro)
e|---------------------|-----------------------0-----|
b|-5~-5-6/8-10-8/3-1---|-5~-5-6/8-10-8/3-1---3---3---|
g|-------------------2-|-------------------2-------2-|
d|---------------------|-----------------------------|
a|---------------------|-----------------------------|
D|---------------------|-----------------------------|

This part is played with two guitars, but if you wanna play it it can be done with one.
e|--------------1-0-------|
b|-5-5-6-8-10---3-1-3-----|
g|-5-5-7-x--x-------2-----|
d|-------9-10-12----------|
a|------------------------|
D|------------------------|

One more song left to tab before the Album is thru, Never Ending. Enjoy.
            
Submit corrections

comments powered by Disqus
↑ Back to top | Onesidezero Tabs for Underground. Lyrics for acoustic guitar and electric guitar. Tablatures and chords are parodies/interpretations of the original songs. You may use it for private study, scholarship, research or language learning purposes only