>
 >
Tapwater 1

Tapwater 1 Guitar Tabs

Onesidezero - Tapwater 1 chords, tabs, tablatures, lyrics

Guitar lessons | Add/correct | Request | Top 50 tabs Artists:  A B C D E F G H I J K L M N O P Q R S T U V W X Y Z 0-9

Tapwater 1 Guitar Tabs – Onesidezero

CD, Sheet music, Poster

Do you like Tapwater 1? Share with your friends now
TabsTabs v2
ONESIDEZERO
TAPWATER


(Gtr.1)INTRO 1
Clean electric
E|----------0--------0--------0--------3------
B|----------3--------3--------3--------3------
G|----------2--------0--------2--------2------
D|----------0--------X--------2--------0------
A|-------------------3--------0---------------
D|--------------------------------------------

INTRO 2  (X 4)
Heavy Distortion
E|--------------------------------------------
B|--------------------------------------------
G|-----------5-------4-------4/5--------------
D|---0--0-0--5--0-0--4--0-0--4/5--0-0--2/3----
A|---0--0-0--3--0-0--2--0-0--2/3--0-0--2/3----
D|---0--0-0-----0-0-----0-0-------0-0--2/3----


(Gtr.2)INTRO 1
E|-------------------------------------3------
B|-------------------------------------3------
G|----------7--------5--------2--------2------
D|----------7--------5--------2---------------
A|----------5--------3--------0---------------
D|--------------------------------------------

INTRO 2  (X4)
Heavy Distortion
E|--------------------------------------------
B|--------------------------------------------
G|-----------5-------4-------4/5--------------
D|---0--0-0--5--0-0--4--0-0--4/5--0-0--2/3----
A|---0--0-0--3--0-0--2--0-0--2/3--0-0--2/3----
D|---0--0-0-----0-0-----0-0-------0-0--2/3----


VERSE(Gtr.1)
E|--------------------------------------------
B|--------------------------------------------
G|--------------------------------------------
D|------------------------------7-------------
A|-----5-----5/3----------0--------7-7^-------
D|--------------------------------------------


VERSE(Gtr.2)
E|------------------------------3-------------
B|------------------------------3-------------
G|-----7---7-7/5----5-5-5/2-----2-------------
D|-----7---7-7/5----5-5-5/2-------------------
A|-----5---5-5/3----3-3-3/0---0------7^-------
D|--------------------------------------------


PRE-CHORUS(Gtrs.1&2)   X 4
E|--------------------------------------------
B|--------------------------------------------
G|--------------------------------------------
D|------0--0-0----5p3-3----3-3---3/6--6-6-----
A|------0--0-0--------3----3-3---3/6--6-6-----
D|------0--0-0--------3----3-3---3/6--6-6-----

VERSE
PRE-CHORUS  X 4

CHORUS(Gtr.1)  X 2
E|--------------------------------------------
B|--------------------------------------------
G|--------------------------------------------
D|---0---------10---------7---------2---------
A|---0---------10---------7---------2---------
D|---0---------10---------7---------2---------

CHORUS(Gtr.2)  X 2
E|--------------------------------------------
B|--------------------------------------------
G|--------------------------------------------
D|---0--0/7-----2-------2h3---------2/5--7/0--
A|--------------------------------------------
D|--------------------------------------------

VERSE      X 2
PRE-CHORUS X 4
CHORUS     X 3

BRIDGE(Gtr.1)
E|--------------------     -------
B|--------------------     -------
G|------------5-------     -------
D|----3---1---5---5--- X 2 --3----
A|----3---1---3---5---     --3----
D|----3---1-------5---     --3----

BRIDGE(Gtr.2)
E|----------                                             ------
B|----------                                             ------
G|----12/13- Second guitar just slides between these     --10--
D|----X--X-- two chords for the whole bridge and ends on --X---
A|----10/11-                                             --8---
D|----------                                             ------

Gtr.1 play INTRO 2   (X 8)
Gtr.2 play INTRO 2   (X 4)

Then Gtr.2 play
E|--------------------------------
B|--------------------------------
G|-----14-----12-----11/12/11-----
D|-----X------X------X------------
A|-----12-----10------9/10/9------
D|--------------------------------

VERSE  X 3

Gtr.1 play INTRO 1   (X 3)
Gtr.2 play INTRO 1   (X 2)

Gtr.2
E|------------------------------------------     ------
B|------------------------------------------     ------
G|-----2-2-----------0-----0-0-2-2-2-0------     ------
D|---0-----2---2-3-2---2-3-------------3-2-- X 2 --0---
A|------------------------------------------     ------
D|------------------------------------------     ------

Gtr.1 Ends on
E|---------------
B|---------------
G|---7---5---2---
D|---7---5---2---
A|---5---3---0---
D|---------------





Comments


Popular Onesidezero tabs & chords
A Point In Time Tabs
Brocwurst Tabs
Brocwurst 1 Tabs
Carry Your Gun Tabs
New World Order 1 Tabs
Paste Tabs
Shed The Skin Tabs
Shed The Skin 2 Tabs
Summertime Tabs
Underground 1 Tabs


Song lyrics



↑ Back to top | Tablatures and chords are parodies/interpretations of the original songs. You may use it for private study, scholarship, research or language learning purposes only
© 2014 AZChords.com Contact us | Privacy policy | DMCA | Add/correct tabs | Request tabs | Top 50 tabs