» » »

New World Order Tabs (ver.2)

Artists:  A B C D E F G H I J K L M N O P Q R S T U V W X Y Z # 

New World Order Tabs (ver.2)

Onesidezero
Rating:
0/5 (0 votes)

Hard to play? Try these video lessons and learn fast.
                Tuning :- High 2 Low E B G D A D
This Song Does Not Need To Be Played In Drop D, I Just Find It's Easier
To PLay This Way.

Intro/Verse Riff 1
E|---------------------------|
B|---------------------------|
G|-------3-------------------|
D|-5-5-5-3---4-4-4-4-5-5-----|
A|-5-5-5-1---4-4-4-4-5-5--7--|
D|-5-5-5-----4-4-4-4-5-5-----|

Verse Riff 2
E|---------------------------|
B|---------------------------|
G|---------------------------|
D|---------------------------|
A|-------1----------------7--|
D|-5-5-5-----4-4-4-4-5-5-----|

Chorus Riff
E|-111111/33\--------------------------------111111/33\---------------------------| 
B|-----------443333333--6666664444/83333333------------443333333--6666666443333333|
G|--------------------------------------------------------------------------------|
D|--------------------------------------------------------------------------------|
A|--------------------------------------------------------------------------------|
D|--------------------------------------------------------------------------------|

Fill Riff
E|-----|
B|-----|
G|--8--|
D|--8--|
A|--6--|
D|-----|

Solo Riff
E|----------------------------------------------------------------------
B|----------------------------------------------------------------------
G|-5----5----5-7-8-5-4-4---5-----5-----5-7-8-5-4-4---7--7-7-6-7-9-10-10-
D|---3-----2-----------------3-----2------------------------------------
A|----------------------------------------------------------------------
D|----------------------------------------------------------------------

E|-------------------------------------|
B|-------------------------------------|
G|-7p66h77p66h7p66--7--7-7-6-7-9-10-10-|
D|-------------------------------------|
A|-------------------------------------|
D|-------------------------------------|

Fill 2 Riff
E|-----------------------------------------------------------------------|
B|-----------------------------------------------------------------------|
G|----------------------------------------------------555-666-777-888-99-|
D|-555-444-333-222--555-444-333-222--555-444-333-222--555-666-777-888-99-|
A|-555-444-333-222--555-444-333-222--555-444-333-222--333-444-555-666-77-|
D|-555-444-333-222--555-444-333-222--555-444-333-222---------------------|

Outro Riff
E|-------------------------|
B|-------------------------|
G|-------3-----------------|
D|-5-5-5-3---4-4-4-4-5-5---|
A|-5-5-5-1---4-4-4-4-5-5---|
D|-5-5-5-----4-4-4-4-5-5---|

Play The Above Riffs In The Following Order
Intro	x 4
Verse 2	x 8
Verse 1	x 4
Chorus	x 1
Fill	x 1
Verse 1	x 4
Verse 2	x 2
Verse 1	x 2
Chorus	x 1
Solo	x 1
Fill 2	x 1
Verse 1	x 1
Fill	x 1
Verse 1	x 3
Outro	x 1

That's It, Now You Can Play One Of the Best Songs Ever.
            
Hard to play? Try these video lessons and learn fast. | Correct




comments powered by Disqus
↑ Back to top | Tablatures and chords are parodies/interpretations of the original songs. You may use it for private study, scholarship, research or language learning purposes only