» » »

Onesidezero, Eight Tabs (ver.3)

Artists:  A B C D E F G H I J K L M N O P Q R S T U V W X Y Z # 

Eight Tabs (ver.3)

Onesidezero Tabs
 Rating:
4/5 (4 votes)
Eight lessons Tabs too difficult? Try these video lessons and learn fast
1
                BAND: ONESIDEZERO
TUNING: STANDARD

INTRO/BRIDGE (0:13) x2
G|-----------------------------------|
D|-444444----------------------------|
A|-------5555557777444444222222------|
E|------------------------------5555-|

VERSE (0:25) x3     THEN THIS
G|-----------------|--------------7h9-7h9-|
D|----222----------|----222---------------|
A|------------4455-|----------------------|
E|-222--444555-----|222----444555---------|

PRE-CHORUS (0:38) x2
G|--------------------------|
D|-------------444444777777-|
A|-444444555555-------------|
E|--------------------------|

CHORUS (0:47) x2             THEN THIS
G|--------------------------|--------------|
D|--------------------------|-222222333333-|
A|-------------444444555555-|--------------|
E|-222222555555-------------|--------------|

BRIDGE (0:57) x2
VERSE (1:09)
PRE-CHORUS (1:22)
CHORUS (1:31) x4

INTERLUDE (2:16)
G|---------------|------------------|---------------|------------------|
D|---------------|----------------7-|---------------|--------------9-7-|
A|-----7/4-5-5-5-|-----7/4-5-55-5-5-|-----7/4--454--|-----7/4-5--4-----|
E|-2-5-----------|-2-5--------------|-2-5-----------|-2-5--------------|

G|-------------------|---------------------|------------------|------------------|
D|-------------------|------------7----7---|------------7---7-|------------------|
A|-----7/4-5-55-5----|-----7/4-5-5-5--5-5--|-----7/4-5-5---5--|-----7/4-5-5-7777-|
E|-2-5------------54-|-2-5-----------------|-2-5--------------|-2-5--------------|

PRE-CHORUS (3:13)



CHORUS (3:22) x5
BRIDGE (3:51) x4

OUTRO (4:16)      x3 THEN THIS
G|---------------|--|------|
D|----222--------|--|------|
A|-------------44|55|------|
E|-222---444555--|--|5-4-2-|

THAT'S IT. GOOD LUKK. HAVE FUN! AWESOME SONG! AWESOME BAND!
            
Submit corrections

comments powered by Disqus
↑ Back to top | Onesidezero Tabs for Eight. Lyrics for acoustic guitar and electric guitar. 1 Tablatures and chords are parodies/interpretations of the original songs. You may use it for private study, scholarship, research or language learning purposes only